Oops, an error
Loading. Please wait.

A New Beginning Tab

95 views 1 this week
no commentswrite comment
1 2 3 4 5
please rate
add to favorites
launch autoscroll
font size
0
reset
how to read this tab
guitar tuner
Tab Pro tools
  • play this tab
  • loop segment
  • change instrument
  • show fretboard
  • metronome
×
Best way to learn
"A New Beginning"
Autoscroll
slow
fast
+/-
esc
set tempo
stop
Contributor
----------------------------------------------------------------------------
                         A new beginning - Zane Thorne
----------------------------------------------------------------------------
Tabbed by:DrewsGotTheLife
Email:cosmokotter@yahoo.com or DrewsGotTheLife
 in Xbox Live(360)
Tuning:EADGBE
Hi,im only a begginer and this is my first time tabbing.If i did good, that doesnt im an 
so enjoy!P.S there might be instrument confusion cause its like a rock/techno song,and 
happy 4 u to edit it cause i know did something wrong.
(Dont know inrument but can be replaced for guitar)


Intro:
e|--------------------------------------------------|
B|--------------------------------------------------|
G|--------------------------------------------------|
D|--------------------------------------------------|
A|--------------------------------------------------|
E|-------4-4--4-4-4-0--4-4--4-4-4-0--2-2---2-2-2-0--|

e|--------------------------------------------------------------------------------------------|
B|--------------------------------------------------------------------------------------------|
G|--------------------------------------------------------------------------------------------|
D|--------------------------------------------------------------------------------------------|
A|--------------------------------------------------------------------------------------------|
E|---4-4--4-4-4-0--4-4--4-4-4-0--4-4--4-4-4-0--4-4---4-4-4-0--2-2--2-2-2-0--2-2--2-2-2-0(3x)--|
----------------------------------------------------------------------------------------------|

e|---------------------------------------------------------------------------|
B|---------------------------------------------------------------------------|
G|---------------------------------------------------------------------------|
D|--4-4--4-4-4-0--4-4--4-4-4-0(2x)--4----------------------------------------|
A|--4-4-----------4-4---------------4----------------------------------------|
E|--4-4-----------4-4---------------4----------------------------------------|
  Verse:
 e|-----------------------------------------------------------------------------|
B|------------------------------------------------------------------------------|
G|------------------------------------------------------------------------------|
D|--4-4--4-4-4-0--4-4--4-4-4-0(3x)--4-------------------------------------------|
A|--4-4-----------4-4---------------4-------------------------------------------|
E|--4-4-----------4-4---------------4-------------------------------------------|
  pre-chorus
e|---------------------------------------------------------------------------|
B|---------------------------------------------------------------------------|
G|---3-(3)--3/13b(3x)--------------------------------------------------------|
D|---------------------------------------------------------------------------|
A|---------------------------------------------------------------------------|
E|---------------------------------------------------------------------------|

e|---------------------------------------------------------------------------|
B|---------------------------------------------------------------------------|
G|----3-(3)--3/13b(4x)-------------------------------------------------------|
D|---------------------------------------------------------------------------|
A|---------------------------------------------------------------------------|
E|---------------------------------------------------------------------------|

e|---------------------------------------------------------------------------|
B|---------------------------------------------------------------------------|
G|------13\2b-(3)------------------------------------------------------------|          (2x)
D|----------------13\2b-(2)--------------------------------------------------|
A|---------------------------------------------------------------------------|
E|---------------------------------------------------------------------------|
Guitar(chorus)
e|------------------------------------|
B|------------------------------------|
G|--------------------------13/5(2x)--|
D|---7-(7)---5-(5)-3-(3)--------------|                       (2x)
A|---7-(7)---5-(5)-3-(3)--------------|
E|---7-(7)---5-(5)-3-(3)--------------|

verse 2
e|----------------|
B|----------------|
G|----------------|
D|--5-5-----------|                    (7x)
A|--5-5-----------|
E|--5-5--4-4-4-0--|
End
e|------------------------------------------------------------------------------|
B|------------------------------------------------------------------------------|
G|--5---------------------------------------------------------------------------|
D|--5---------------------------------------------------------------------------|
A|--5---------------------------------------------------------------------------|
E|--5---------------------------------------------------------------------------|
Outro
e|--------------------|
B|--------------------|
G|--------------------|
D|--------------------|
A|--------------------|
E|----0--0-0-0h4h5h0--|

| /  slide up
| \  slide down
| h  hammer-on
| p  pull-off
| ~  vibrato
| +  harmonic
| x  Mute note

Legend:

Intro
Verse 1
pre-chorus
chorus
verse 2

pre-chorus
chorus
end
outro

http://www.mp3.com/free-music/13-Z/all-free-music
comments
We did not receive enough feedback on this tab! Please rate:
print report bad tab
1 2 3 4 5
I want to post or [tab]
guest
You may want to rate the tab now too:
select rating
Please do not post tabs as comments. Select "correction" instead!