Oops, an error
Loading. Please wait.

Vagyom Rad chords

154 views 3 this week
no commentswrite comment
1 2 3 4 5
3 more votes to show rating
add to favorites
×
Save as Personal and add changes to this tab that will be seen only by you. Learn more ›
×
You can save this tab as Personal to edit and correct it or add notes. All changes will be seen only by you. Learn more »
launch autoscroll
font size
0
reset
transpose
0
reset
display chords
guitar tuner
edit
Autoscroll
slow
fast
+/-
esc
set tempo
stop
Author
Difficulty
Strumming
There is no strumming pattern for this song yet. and get +5 IQ
[Intro]

e|--12--------------------------------------12--------------------------13---|
B|-----13------------------------13------------13--------------------13------|
G|--------12-----12-------12-14-----14------------12-----12-------14---------|
D|-----------14----14--15--------------15------------14----14--15------------|
A|---------------------------------------------------------------------------|
E|---------------------------------------------------------------------------|

OR

e|---------------------------------------------------------------------------|
B|--17--------------------------------------17---------------------------18--|
G|-----17-------------------------17-----------17---------------------17-----|
D|--------17-14--17-14--15-17-19-----19-15--------17-14--17-14--15-19--------|
A|---------------------------------------------------------------------------|
E|---------------------------------------------------------------------------|


[Verse]

C               F
Nyári éjjel megláttalak,
C               F
Csendben álltam, nem kérdeztem ki vagy?
C               F
Tudtam Rád vártam, álmom volt e nap

Am      G                F
Vágyom Rád, oly messze vagy.

C                      F
A szavad hallom, mert féltelek,
C               F
egy szót se szólsz, én értelek.
C               F
Szállj velem, feledve bűnös napokat,

Am      G                F
Vágyom Rád, oly messze vagy.

[Chorus]
Am                  G
A hangod hallom, ha zúg a szél,
Em                       F
mond hol maradsz, ha a csend kísér.
C                    G
Elsuttognám, minden titkomat,
Am      G                F
Vágyom Rád, oly messze vagy.
Am      G                 F
Vágyom Rád, oly messze vagy.

[Verse]
C               F
Kevésnek érzem minden sóhajom,
C               F
Üressé vált minden mondatom.
C               F
Még egyszer láthatnám az arcodat,
Am      G                F
Vágyom Rád, oly messze vagy.

C                      F
Kérlek ne sírj, ha valami bánt,
C                      F
Hivj - egy szó, s dalom érted kiált.
C                      F
Rám találsz majd, tudom, eljön az a nap,
Am      G                F
Vágyom Rád, oly messze vagy.

[Chorus]
Am                  G
A hangod hallom, ha zúg a szél,
Em                       F
mond hol maradsz, ha a csend kísér.
C                    G
Elsuttognám, minden titkomat,
Am      G                F
Vágyom Rád, oly messze vagy.

Am                  G
A hangod hallom, ha zúg a szél,
Em                       F
mond hol maradsz, ha a csend kísér.
C                    G
Elsuttognám, minden titkomat,
Am      G                F
Vágyom Rád, oly messze vagy.
Am      G                 F
Vágyom Rád, oly messze vagy.
       Dm
Úgy vágyom Rád

[Bridge]

Em Am Em Am 
Em Em F G 

[Chorus]
Am                  G
A hangod hallom, ha zúg a szél,
Em                       F
mond hol maradsz, ha a csend kísér.
C                    G
Elsuttognám, minden titkomat,
Am      G                F
Vágyom Rád, oly messze vagy. 

            
            
Suggest correction
Creating personal tab
Creating personal tab
You can edit any tab online and save it as your Personal.

You can edit, replace or remove any tab part or add personal notes – all changes will be seen only by you.

Personal tabs can be accessed anytime from any device, even offline.
Learn more »
Give kudos to tab author, rate the tab!
1 2 3 4 5
comments
print report bad tab
guest
You may want to rate the tab now too:
select rating
Wanna post a correction for this tab? Suggest correction