Oops, an error
Loading. Please wait.

Angel Without Wings Tab

2,735 views 6 this week
4 commentsread comments
1 2 3 4 5
x 5
add to favorites
launch autoscroll
font size
0
reset
how to read this tab
guitar tuner
Autoscroll
slow
fast
+/-
esc
set tempo
stop
Help us to improve Ultimate-Guitar.com Take our survey!
×
Zao - Angel Without Wings
Album - Where Blood And Fire Bring Rest
Drop D Tuning
Submitted By: Stand Alone (projectwyze13@hotmail.com)


Intro 
e|---------------------------------------------------------------------|
B|---------------------------------------------------------------------|
G|---------------------------------------------------------------------|
D|-11-11--11-11--7-----------------------------------------------------|
A|-9--9---9--9---5-----------------------------------------------------|
D|--------9--9---------------------------------------------------------|

Verse
e|---------------------------------------------------------------------|
B|---------------------------------------------------------------------|
G|---------------------------------------------------------------------|
D|-2--5-12-11--2--5--12-11-2--5-12-11--2-5--12-11----------------------|
A|-2--5-12-11--2--5--12-11-2--5-12-11--2-5--12-11----------------------|
D|-2--5-12-11--2--5--12-11-2--5-12-11--2-5--12-11----------------------|

Chorus "you're my angel"
e|-----------5----------2--------------5-----------2-------------------|
B|-----3--------------0----0-----3-------11-----0----0-----------------|
G|--4----4-----11--4-----------4----4--------4-------------------------|
D|---------------------------------------------------------------------|
A|---------------------------------------------------------------------|
D|---------------------------------------------------------------------|

Post Chorus "you're always always there for me"
e|---------------------------------------------------------------------|
B|---------------------------------------------------------------------|
G|---------------------------------------------------------------------|
D|-12-9-7--5-9---------------------------------------------------------|
A|-12-9-7--5-9--4-5-7-5-4-5-7-5-4-5-7-5-4-5-7-5------------------------|
D|-12-9-7--5-9---------------------------------------------------------|

Bridge
e|---------------------------------------------------------------------|
B|---------------------------------------------------------------------|
G|-11------------------------------------------------------------------|
D|-11-8---alot---------------------------------------------------------|
A|-9--8----------------------------------------------------------------|
D|----8----------------------------------------------------------------|
Suggest correction
comments
print report bad tab
4 comments total. Showing first comments.
0 reply
fayd 74 Nov 15, 2006 08:12 PM

awesome tab the intro part i cant hear but none the less awesome

0 reply
Red989 10 Feb 19, 2007 09:43 PM

Ok, the verse and part of the postchorus' notes are right, no strumming pattern though. The part where he says "You were always, always there for me" needs to be fixed, and the chorus is almost completely off. A 4 (B) on the G string is the same as an open (B) on the B string. But good going anyways, if I figure out the rest, I'll post it up, and give you credit for what I got from you.

0 reply
rob_sanderson 79 Feb 23, 2007 09:30 AM

e|-----------5-----------2--------------5---------2-----------|
B|-----3--------7------0---0----3---------7-----0---0---------|
G|--4----4-----------4---------4---4----------4---------------|
D|------------------------------------------------------------|
A|------------------------------------------------------------|
D|------------------------------------------------------------|
try that it sounds the same as the song
and its easyier to play instead of going down to 11 instead
good tab though i like it =D

guest
You may want to rate the tab now too:
select rating
Wanna post a correction for this tab? Suggest correction