Oops, an error
Loading. Please wait.

Fifteen Rhema Bass Tab

by Zao
96 views 1 this week
no commentswrite comment
1 2 3 4 5
please rate
add to favorites
launch autoscroll
font size
0
reset
guitar tuner
Autoscroll
slow
fast
+/-
esc
set tempo
stop
Help us to improve Ultimate-Guitar.com Take our survey!
×
Contributor
Drop D tuning

Intro 
G |--------|
D |--------|
A |--------|
D |--12\\-0|

Riff 1 						Last Time (0:24)
G |-------------------------------------------|----------------|
D |-------------------------------------------|----------------|
A |----6-5-3-0-1-----------6-5-3--------------|--6-5-3--00-00--|
D |--0-----------0-1-3-1-0-------1-1-0-1-3-1--|----------------|

Fill 1 
G |----------------------|
D |----------------------|
A |------------------5~--|
D |--0~------0~----------|

Riff 2 
G |-----------------------|
D |--------3-3-------6-6--|
A |--5-3-5-----5-3-5------|
D |-----------------------|

Riff 3 
G |---------------------|
D |---------------------|
A |---------------------|
D |--0-2-3-2-0-0-0-0h2--|

Fill 2 (1:02)
G |--------------------|
D |--------------------|
A |--------------------|
D |--0-0-0-0------0-0--|

G |----------------------|
D |----------------------|
A |----------------------|
D |--0-0--0-0---0-0-0-0--|

Riff 4 
G |-----------------------|
D |-----------------------|
A |---------------5----5--|
D |--5-0-3-0-1-00---00----|

Riff 5 
G |------------------------------------------|
D |------------------------------------------|
A |------------------------------------------|
D |--3-3--3-3--3-3--3-3--2-2--2-2--2-2--2-2--|

Riff 6 
G |--------------------------------------------------|
D |--------------------------------------------------|
A |--------------------------------------------------|
D |--2-2~--2-2~--3-3~--3-3~--2-2~--2-2~--3-3~--3-3~--|

G |----------------------|
D |----------------------|
A |----------------------|
D |--2-2~--2-2~--3~--2~--|

Fill 3 
G |----------------------------|
D |----------------------------|
A |----------------------------|
D |--0-0-0-0-0-0-0-0------0-3--|

Riff 7 
G |-----------------------------------------------------|
D |-----------------------------------------------------|
A |-----6---5---5---3---1h3p1-0----6---5---3h5-5h6-6h8--|
D |--00---0---0---0---0---------00---0---0--------------|

Riff 8 
G |------------------|
D |------------------|
A |----------0~--3~--|
D |--0~--3~----------|

Outro
G |--------------|
D |--------------|
A |--------------|
D |--0-0-0-0-0~--|
comments
We did not receive enough feedback on this tab! Please rate:
print report bad tab
1 2 3 4 5
I want to post or [tab]
guest
You may want to rate the tab now too:
select rating
Please do not post tabs as comments. Select "correction" instead!