Oops, an error
Loading. Please wait.

Last Song From Zion Bass Tab

by Zao
343 views 1 this week
no commentswrite comment
1 2 3 4 5
please rate
add to favorites
launch autoscroll
font size
0
reset
guitar tuner
Autoscroll
slow
fast
+/-
esc
set tempo
stop
Help us to improve Ultimate-Guitar.com Take our survey!
×
Contributor
 ~ let ring

part1                <--------------------2X---------------------------------|
F-------------------I---------------------------------------------I----------|
C-------------------I---------------------------------------------I----------|
G-------------------I---------------------------------------------I----------|
C-0~-2~-1~-0~-2~-1~-I-0--000000-0-0000-0000-2--222222-1-1111-1111-I-0~-2~-1--|

part2
F----------------------------------------------------------------------|
C----------------------------------------------------------------------|
G-0----0---------------0-1-11-3-1-0--0----0---------------0-1-11-------|
C---000--4-000-42-0000-----------------000--4-000-42-0000--------2-3-4-|

part2 cont.
F------------------------------------------------------|
C------------------------------------------------------|
G-0----0---------------0-1-11-3-1-0--0----0------------|
C---000--4-000-42-0000-----------------000--4-000-442~-|

part3
F----------------------------|
C----------------------------|
G----------10----------------|
C-3-2-0-323--32-3-2-4-44-444-|

part4
F----------------------|
C----------------------|
G----------------------|
C-0~-3~-2~-0~-3~-2~-0~-|

part5
F--------|
C--------|
G--------|
C-0-0-00-|

part6
F-----------|
C-----------|
G-----------|
C-0000-0000-|

i think thats all.. i suck at typing so find the order and have fun..
and send me your corrections.. =)
  xxSID
comments
We did not receive enough feedback on this tab! Please rate:
print report bad tab
1 2 3 4 5
I want to post or [tab]
guest
You may want to rate the tab now too:
select rating
Please do not post tabs as comments. Select "correction" instead!