Oops, an error
Loading. Please wait.

Resistance Bass Tab

838 views 1 this week
no commentswrite comment
1 2 3 4 5
3 more votes to show rating
add to favorites
launch autoscroll
font size
0
reset
guitar tuner
Autoscroll
slow
fast
+/-
esc
set tempo
stop
Help us to improve Ultimate-Guitar.com Take our survey!
×
Drop D tuning

Riff 1 (0:16)
G |--------------------------------|
D |--------------------------------|
A |----------8-7---7---7---7-8-7---|
D |--0-xxx-0-----0---0---0---------|

G |-------------------------------|
D |-------------------------------|
A |----------8-7---7---7---8-7~---|
D |--0-xxx-0-----0---0---0--------|

Riff 2 (0:30)
G |-------------------------------------------|
D |-------------------------------------------|
A |--1--1-2--2-1-2-1------1--1-2--2-1-2-4-6~--|
D |------------------1111---------------------|

G |---------------------------|
D |---------------------------| x2
A |--6--6-8--8-6-8-6-5-3-2-3--|
D |---------------------------|

Riff 3
G |------------------------------|
D |------------------------------|
A |--8-6-8-6~-8-6-8-6------------|
D |-------------------0000-0000--|

Fill 
G |-----------|
D |------9----|
A |--------8--|
D |--7-8------|

Riff 4 (1:14)
G |--------------------------------|
D |--------------------------------|
A |----------8-7---7---7---7-8-7---|
D |--0-xxx-0-----0---0---0---------|

G |-----------------------------------|
D |------------------------------9----|
A |----------8-7---7---7---7-------8--|
D |--0-xxx-0-----0---0---0---7-8------|

Riff 5 (1:29)
G |--------------|
D |*------------*|
A |*--2---------*|
D |----000000----|

Riff 6 (1:46)
G |---------------|
D |*-------------*|
A |*-------------*|
D |---3333-2222---| 

Riff 2 

Riff 7
G |-------------------------|
D |*-----------------------*|
A |*-----------------------*|
D |---11-1-1-11-1-1-11111---| 

End Bass Fill 
G |-------------------------------------------|
D |-------------------------------------------|
A |-------------------------------------------|
D |--13-13-13~-13h14p13p11h13p11p9h11~p7\\\\--|
Suggest correction
Give kudos to tab author, rate the tab!
1 2 3 4 5
comments
print report bad tab
guest
You may want to rate the tab now too:
select rating
Wanna post a correction for this tab? Suggest correction