Oops, an error
Loading. Please wait.

Tool To Scream Bass Tab

210 views 1 this week
no commentswrite comment
1 2 3 4 5
3 more votes to show rating
add to favorites
launch autoscroll
font size
0
reset
guitar tuner
×
Best way to learn
"Tool To Scream"
Autoscroll
slow
fast
+/-
esc
set tempo
stop
Drop D tuning

Intro 
G |--------------------|
D |--------------------|
A |--3~-------3~-------|
D |--------------------|

G |----------------------------|
D |----------------------------|
A |--1h3~-1h3~-3~-1h3~-6-5-3~--|
D |----------------------------|

Riff 2 (1:18) 
G |------------------------------------------------------|
D |------------------------------------------------------|
A |------------------------------------------------------|
D |--000000000000000000000000--111111111111111111111111--|

Riff 3 
G |-----------------------------|
D |-----------------------------|
A |-----------------------------|
D |--0~-00~--1111-111-1111-111--|

Rest During solo

Fill (2:08)
G |--------------|
D |--------------|
A |--------------|
D |--0~-000~-00--|

Riff 4 
G |----------|
D |----------|
A |----------|
D |--0/12\\0-|

Riff 5 
G |-----------|
D |--------5--|
A |------5----|
D |--0~-------|

Riff 6 
G |---------------------------|
D |---------------------------|
A |---------------------------|
D |--00-00-00-00-33-33-33-33--|

Riff 7 
G |------------------|
D |------------------|
A |------------------|
D |--6~-3~-5~-1~-0~--|

Riff 5 

Riff 8
G |-----------------|
D |--------------5--|
A |------------5----|
D |--000-000-0------|
Suggest correction
Give kudos to tab author, rate the tab!
1 2 3 4 5
comments
print report bad tab
guest
You may want to rate the tab now too:
select rating
Wanna post a correction for this tab? Suggest correction