Oops, an error
Loading. Please wait.

Obstinado tab

75 views 1 this week
no commentswrite comment
1 2 3 4 5
3 more votes to show rating
add to favorites
×
Save as Personal and add changes to this tab that will be seen only by you. Learn more ›
×
You can save this tab as Personal to edit and correct it or add notes. All changes will be seen only by you. Learn more »
launch autoscroll
font size
0
reset
how to read this tab
guitar tuner
edit
Autoscroll
slow
fast
+/-
esc
set tempo
stop
EL FONDO DEL INTRO ESTA BASADO EN MI Y EN FA
en caso de que desee hacerle un intro

Puedes emular el gallo con el F de la 1era cuerda o
un gallo real hecho en d-3

De esta manera yo toco obstinado jaja! suerte y que le vaya bien
hay unos arreglos modificados... suerte

e--------------------------1
b---------------------------
g---------------------------
d---------------------------
a---------------------------
e--0-0-1-0--0-1-0--0-1-0--0-1

e---------------------------1
b---------------------------1
g---------------------------1
d---------------------------3
a---------------------------3
e--0-0-1-0--0-1-0--0-1-0--0-1

-------------------|
-------------------|
-------------------|
-------------------|
-5-4-5-4-----------|
---------5-4-5-1---|

Bb+9  A5

e-------------------|-------------------|
b-------------------|-------------------|
g--------7-------10-|-------------------|
d----8-------8------|---7---7---7--7--7-|
a--8---8---8---8----|-7---7---7--7--7---|
e-------------------|-------------------|

Bbadd9                A5
Obstinado de vivir,
hoy todo es rutina,
esta vida no es igual,
esta vida no es la misma,
Bbadd9               C
obstinado en mi cuarto,
Bbadd9          A5
no puedo dormir,
Bbadd9        C
busco la forma
Bbadd9          A5
de poder resistir.


e-----------------------------
b-----------------------------
g-----------------------------
d-----------------------------
a-----------------------------
e--0-0-1-0--0-1-0--0-1-0-1--0-0-1-0

-------------------|
-------------------|
-------------------|
-------------------|
-5-4-5-4-----------|
---------5-4-5-1---|

Bbadd9                A5
Obstinado de la luz,
ya no quiero que me vean,
no no es por pena,
no no es por pena,
Bbadd9               C
la botella esta vacia,
Bbadd9          A5
ya no tengo precision,
Bbadd9               C
en mi cara hay una lagrima
Bbadd9          A5
que delata tu intencion.

CORTE


C5- d5- Bb5 - a5 Bb5

Bb5- A5 - G5 _ Cm B

SOLO

Bbadd9                A5 x4

Bbadd9               C    Bbadd9          A5 x2
PERO UNA GITARRA HACE
Bbadd9               C    D               A5

Bbadd9                A5
Obstinado de vivir,
ya todo es rutina,
esta vida no es igual,
esta vida no es la misma,
Bbadd9               C
la botella esta vacia,
Bbadd9          A5
ya no tengo precision,
Bbadd9               C
en mi cara hay una lagrima
Bbadd9          A5
que delata tu intencion.

e--------------------------------------
b--------------------------------------
g--------------------------------------
d--------------------------------------
a--------------------------------------
e--0-0-1-0--0-1-0--1-0--0-1-0--0-0-1-0-

TABS BY Efrencho manuel.
E to X-CHO!
Hi-Fi Tabs Labs.

Mail: efrenchos@
MSN: rammsquake@
Amigos del Jam (FACEBOOK GROUPS)
Suggest correction
Creating personal tab
Creating personal tab
You can edit any tab online and save it as your Personal.

You can edit, replace or remove any tab part or add personal notes – all changes will be seen only by you.

Personal tabs can be accessed anytime from any device, even offline.
Learn more »
Give kudos to tab author, rate the tab!
1 2 3 4 5
comments
print report bad tab
guest
Wanna post a correction for this tab? Suggest correction