Oops, an error
Loading. Please wait.

Permanecer tab

43 views 1 this week
no commentswrite comment
1 2 3 4 5
3 more votes to show rating
add to favorites
×
Save as Personal and add changes to this tab that will be seen only by you. Learn more ›
×
You can save this tab as Personal to edit and correct it or add notes. All changes will be seen only by you. Learn more »
launch autoscroll
font size
0
reset
how to read this tab
guitar tuner
edit
Autoscroll
slow
fast
+/-
esc
set tempo
stop
BUENO ESTA ES LA PRIMERA TABLATURA QUE HAGO HICE
MI MEJOR ESFUERZO Y AY SE LAS DEJO UNA TREMENDA
CANCION ESPERO QUE LES GUSTE Y SIGAN ESCUCHANDO
ZAPATO 3 SIN DUDA LA MEJOR BANDA QUE TUVO
VENEZUELA


ACORDES:

   B    E    C#   A
|--2----0----4----5------------------------------
|--4----0----4----5------------------------------
|--4----1----6----6------------------------------
|--4----2----6----7------------------------------
|--2----2----4----7------------------------------
|--2----0----4----5------------------------------


                    PERMANECER

Intro:
RIFF 1
|------------------------------------------------
|------------------------------------------------
|-----11---11------------------------------------
|--9----9------9--6--9--6--9--6--5--4------------
|------------------------------------------------
|------------------------------------------------

|------------------------------------------------
|----11-----11-----------7--7--7-----------------
|-9------9------9--6--9--------------------------
|------------------------------------------------
|------------------------------------------------
|------------------------------------------------

RIFF 2
|------------------------------------------------
|------------------------------------------------
|--6--4--6--6/8--6--4-----4--6s4------------15/17
|----------------------6----------6/7------------
|------------------------------------------------
|------------------------------------------------

ESTROFA:
(Va con una variación del RIFF 1)


     B E   B             E
Regresar a travez del tiempo
B                    E               B E
Solo por volverte a ver volverte a ver
B      E    B                 E
Regresar para darte un gran adios
           B           E
Que nos marque para siempre
             B         E
para siempre

CORO:

C#       B      A
Y volver (RIFF 2)


C#       B      A
Volver?  (RIFF 2)


ESTROFA:
(Va con una variación del RIFF 1)


B      E         B           E
Y volver la mirada hacia arriba

        B       E                  B
solo para obtener un lugar a tus pies

      B E     B              E
y volver siempre una y otra vez

       B          E              B  E
venciendo la ilusion del tiempo

B       E              B            E
y escoger solo un momento en el pasado

   B              E              B   E
irnos cerca y a tu lado permanecer


C#       B      A
y volver

C#       B      A
y volver

C#       B      A x3

C#       B      A
volver

C#       B      A
volver..

C#       B      A   hasta el final


Realizado por chuck262
Comentarios y tabs:
night_hawk906@
Suggest correction
Creating personal tab
Creating personal tab
You can edit any tab online and save it as your Personal.

You can edit, replace or remove any tab part or add personal notes – all changes will be seen only by you.

Personal tabs can be accessed anytime from any device, even offline.
Learn more »
Give kudos to tab author, rate the tab!
1 2 3 4 5
comments
print report bad tab
guest
Wanna post a correction for this tab? Suggest correction