Oops, an error
Loading. Please wait.

Vampiro tab

version 1
version 1

Whole song

158 views 1 this week
no commentswrite comment
1 2 3 4 5
3 more votes to show rating
add to favorites
×
Save as Personal and add changes to this tab that will be seen only by you. Learn more ›
×
You can save this tab as Personal to edit and correct it or add notes. All changes will be seen only by you. Learn more »
launch autoscroll
font size
0
reset
how to read this tab
guitar tuner
edit
Autoscroll
slow
fast
+/-
esc
set tempo
stop
05-10-04
desde  rafael serrano
si necesitan algunos tabs de rock pidanlos a mi correo
y si tienen AL COMIENZO de caramelos de cianuro
porfavor mandenmelo


el otro tab estaba bueno pero le faltaba el punteo:

 INTRO
E|-----------------------------------------
B|-----------------------------------------
G|-----------------------5-5-5-------------
D|--------3-5-3--5/7--7--------------------
A|-5--5------------------------------------
E|-----------------------------------------

[Am Dm ][Am Dm ][Am Dm ][G    ][F    ]x2
(estos tres secciones
llevan los mismos acordes
pero el ritmo es diferente
en cada seccion)


 Estrofa

Am                    Dm
Siempre esta deseando mas
Am                    Dm
Siempre esta exigiendo mas
Am                    Dm
Siempre esta deseando mas
G
Deseando
F
mas de mi

E|-----------------------------------------
B|-----------------------------------------
G|-----------------------5-5-5-------------
D|--------3-5-3--5/7--7--------------------
A|-5--5------------------------------------
E|-----------------------------------------

[Am Dm ][Am Dm ][Am Dm ][G    ][F    ]x2


Am                    Dm
Siempre esta deseando mas
Am                     Dm
Siempre esta exigiendo mas
Am                    Dm
Siempre esta deseando mas
G
Y no la puedo
F
controlar

Coro
          C        F
Porque es un vampiro
C               F
Que me quita el poder
C           F
Es un vampiro
C             F
Vestido de mujer
C           F
Es un vampiro
C                F
Ella me da que hacer
C           F
Es un vampiro
      C             F
Pero es toda una mujer

E|-----------------------------------------
B|-----------------------------------------
G|-----------------------5-5-5-------------
D|--------3-5-3--5/7--7--------------------
A|-5--5------------------------------------
E|-----------------------------------------

[Am Dm ][Am Dm ][Am Dm ][G    ][F    ]x2


Estrofa 2
repite estrofa 1 una vez

Coro hasta el final!


acordes

    Am  Dm  G   F   C
e---0---1---3---1---0-
B---1---3---0---1---1-
G---2---2---0---2---0-
D---2---0---0---3---2-
A---0---0---2---3---3-
E-------0---3---1-----


se la dedico a mi primo silvano que fue a
quien vi tocar esta cancion por primera vez.

            
            
Suggest correction
Creating personal tab
Creating personal tab
You can edit any tab online and save it as your Personal.

You can edit, replace or remove any tab part or add personal notes – all changes will be seen only by you.

Personal tabs can be accessed anytime from any device, even offline.
Learn more »
Give kudos to tab author, rate the tab!
1 2 3 4 5
comments
print report bad tab
guest
Wanna post a correction for this tab? Suggest correction