Oops, an error
Loading. Please wait.

Vampiro tab

version 2
version 2

Whole song

75 views 1 this week
no commentswrite comment
1 2 3 4 5
3 more votes to show rating
add to favorites
×
Save as Personal and add changes to this tab that will be seen only by you. Learn more ›
×
You can save this tab as Personal to edit and correct it or add notes. All changes will be seen only by you. Learn more »
launch autoscroll
font size
0
reset
how to read this tab
guitar tuner
edit
Autoscroll
slow
fast
+/-
esc
set tempo
stop
rafael desde merida - venezuela.....................

INTRO
E|------------------------------------------
B|------------------------------------------
G|---------------------5--------------------
D|--------3-5-3--5/7------7-5-3-------------
A|-5--5--------------------------5----------
E|------------------------------------------

E|---------------------------------------------
B|---------------------------------------------
G|---------------------5-5-----5---------------
D|--------3-5-3--5/7--------7-----7-5-3--------
A|-5--5----------------------------------5-----
E|---------------------------------------------

E|-----------------------------------------------
B|-----------------------------------------------
G|---------------------5-5-----5----------3---3--
D|--------3-5-3--5/7--------7-----7-7--5----5----
A|-5--5------------------------------------------
E|-----------------------------------------------

--------------------------------|
--------------------------------|
------3-------------------------|
-5-5-----5/7--5-3------3-3/7-5--|
--------------------5-----------|
--------------------------------|


 Estrofa

A5                    D5
Siempre esta deseando mas
A5                    D5
Siempre esta exigiendo mas
A5                    D5
Siempre esta deseando mas
G5
Deseando
F5
mas de mi

E|------------------------------------------
B|------------------------------------------
G|---------------------5--------------------
D|--------3-5-3--5/7------7-5-3-------------
A|-5--5--------------------------5----------
E|------------------------------------------

E|---------------------------------------------
B|---------------------------------------------
G|---------------------5-5-----5---------------
D|--------3-5-3--5/7--------7-----7-5-3--------
A|-5--5----------------------------------5-----
E|---------------------------------------------

E|-----------------------------------------------
B|-----------------------------------------------
G|---------------------5-5-----5----------3---3--
D|--------3-5-3--5/7--------7-----7-7--5----5----
A|-5--5------------------------------------------
E|-----------------------------------------------

--------------------------------|
--------------------------------|
------3-------------------------|
-5-5-----5/7--5-3------3-3/7-5--|
--------------------5-----------|
--------------------------------|


A5                    D5
Siempre esta deseando mas
A5                    D5
Siempre esta exigiendo mas
A5                    D5
Siempre esta deseando mas
G5
Y no la puedo
F5
controlar

Coro
          C5        F5
Porque es un vampiro
C5               F5
Que me quita el poder
C5           F5
Es un vampiro
C5             F5
Vestido de mujer
C5           F5
Es un vampiro
C5                F5
Ella me da que hacer
C5           F5
Es un vampiro
      C5             F5
Pero es toda una mujer

E|------------------------------------------
B|------------------------------------------
G|---------------------5--------------------
D|--------3-5-3--5/7------7-5-3-------------
A|-5--5--------------------------5----------
E|------------------------------------------

E|---------------------------------------------
B|---------------------------------------------
G|---------------------5-5-----5---------------
D|--------3-5-3--5/7--------7-----7-5-3--------
A|-5--5----------------------------------5-----
E|---------------------------------------------

E|-----------------------------------------------
B|-----------------------------------------------
G|---------------------5-5-----5----------3---3--
D|--------3-5-3--5/7--------7-----7-7--5----5----
A|-5--5------------------------------------------
E|-----------------------------------------------

--------------------------------|
--------------------------------|
------3-------------------------|
-5-5-----5/7--5-3------3-3/7-5--|
--------------------5-----------|
--------------------------------|

            
            
Suggest correction
Creating personal tab
Creating personal tab
You can edit any tab online and save it as your Personal.

You can edit, replace or remove any tab part or add personal notes – all changes will be seen only by you.

Personal tabs can be accessed anytime from any device, even offline.
Learn more »
Give kudos to tab author, rate the tab!
1 2 3 4 5
comments
print report bad tab
guest
Wanna post a correction for this tab? Suggest correction