Oops, an error
Loading. Please wait.

Uncover Tab

version 1
version 1

Whole song

Interactive

22,869 views 57 this week
no commentswrite comment
1 2 3 4 5
x 3
add to favorites
launch autoscroll
font size
0
reset
how to read this tab
guitar tuner
×
Best way to learn
"Uncover"
Autoscroll
slow
fast
+/-
esc
set tempo
stop
Author
Here is "Uncover" with Zara Larsson.
The lines have nothing to do with how long the notes are doing

e|------0-|0------0-|0--------|------------|-------0-|0------0-|
B|--0-3---|---0-3---|-------0-|3---------0-|3--0-3---|---0-3---|
G|--------|---------|---0-2---|---0--0-2---|---------|---------|
D|--------|---------|---------|------------|---------|---------|
A|--------|---------|---------|------------|---------|---------|
E|--------|---------|---------|------------|---------|---------|

e|-0-2--------|------------|------------|------------------|---------------|
B|----------0-|3---------0-|3-----------|0-0------0-0------|0-0-0----------|
G|------0-2---|---0--0-2---|---0--------|------------------|------2-0------|
D|------------|------------|-----4--2-2-|-----2-2------0-0-|-----------0-0-|
A|------------|------------|------------|------------------|---------------|
E|------------|------------|------------|------------------|---------------|

e|-----------------|--------------|-----------|-----------|----------|
B|-0-0-----0-0-----|--------------|0-0--0-0---|0-0-0------|----------|
G|-------------0-0-|--------------|-----------|------2-0--|0-0-0-0---|
D|-----0-0---------|4-4-4-0---2-2-|---------0-|-----------|--------0-|
A|-----------------|--------3-----|-----------|-----------|----------|
E|-----------------|--------------|-----------|-----------|----------|

e|------------|--------------|---------------|--------------|
B|--------1-0-|--------------|-----0-----1-0-|------------0-|
G|------------|2--2-2-2--2-2-|2--2---0-2-----|2--2-2-2--2---|
D|-4--4-4-----|--------------|---------------|--------------|
A|------------|--------------|---------------|--------------|
E|------------|--------------|---------------|--------------|

e|--------0-|0------0-|0--------|------------|-------0-|0------0-|
B|----0-3---|---0-3---|-------0-|3---------0-|3--0-3---|---0-3---|
G|-0--------|---------|---0-2---|---0--0-2---|---------|---------|
D|----------|---------|---------|------------|---------|---------|
A|----------|---------|---------|------------|---------|---------|
E|----------|---------|---------|------------|---------|---------|

e|-0-2--------|------------|--------------|1-0------|1-0-------0-|
B|----------0-|3---------0-|3-----------0-|-----2-0-|-----0-0-0--|
G|------0-2---|---0--0-2---|---0--0-0-0---|---------|------------|
D|------------|------------|--------------|---------|------------|
A|------------|------------|--------------|---------|------------|
E|------------|------------|--------------|---------|------------|

e|----------|----------|--------------|--------------|------------------|
B|-1-0------|-0--------|0-0----0-0----|0-0-0---------|0-0------0-0------|
G|------2-0-|---2------|--------------|------2-0-----|--------------0-0-|
D|----------|--------2-|-----2------2-|----------0-0-|-----0-0----------|
A|----------|----------|--------------|--------------|------------------|
E|----------|----------|--------------|--------------|------------------|

e|-----------------|--------------|-----------|------------|
B|-----------------|0-0--0-0------|0-0-0------|--------0---|
G|-----------------|--------------|------2-0--|0-0-0-2---2-|
D|-4-4-4-0-2-0-2-2-|----------2-2-|-----------|------------|
A|-----------------|--------------|-----------|------------|
E|-----------------|--------------|-----------|------------|

e|------------|
B|-0------1-0-|
G|---2--------|
D|------0-----|
A|------------|
E|------------|

You will get more soon :)
Suggest correction
Give kudos to tab author, rate the tab!
1 2 3 4 5
comments
print report bad tab
guest
You may want to rate the tab now too:
select rating
Wanna post a correction for this tab? Suggest correction