Oops, an error
Loading. Please wait.

Fool For You tab

version 1
version 1

Whole song

1,936 views 24 this week
no commentswrite comment
1 2 3 4 5
x 4
add to favorites
×
Save as Personal and add changes to this tab that will be seen only by you. Learn more ›
×
You can save this tab as Personal to edit and correct it or add notes. All changes will be seen only by you. Learn more »
launch autoscroll
font size
0
reset
how to read this tab
guitar tuner
edit
Autoscroll
slow
fast
+/-
esc
set tempo
stop
Author
Difficulty
I got help with the chords here: https://tabs.ultimate-guitar.com/z/zayn_malik/fool_for_you_crd.htm

Enjoy! :)

[Intro]

   G                 Bm             Em          G7 

e|--3------3--------2------2-------3-0---3------1------1---------------------|
B|----3-0--------------3-0-------------0-----------3-0-----------------------|
G|---------------------------------------------------------------------------|
D|---------------------------------------------------------------------------|
A|------------------2--------------------------------------------------------|
E|--3------------------------------0------------3----------------------------|

   C              Cm         G    C   G

e|---0-----0-----------------------------------------------------------------|
B|-----1----------4-----------0---1----0-------------------------------------|
G|-------0----------5---5-------0---0----------------------------------------|
D|--------------------5------------------------------------------------------|
A|---3------------3---------------3------------------------------------------|
E|----------------------------3--------3---------3--2------------------------|


[Verse]

e|--3------3--------2------2-------3-0---3------3-0---3----------------------|
B|----3-0--------------3-0-------------0------------0------------------------|
G|---------------------------------------------------------------------------|
D|---------------------------------------------------------------------------|
A|------------------2--------------------------------------------------------|
E|--3------------------------------0------------0----------------------------|

e|--0-----0-----0----0-3-----0---------------3-------------------------------|
B|----1------------1-----------1---1------3----3-----------------------------|
G|------0------------------------2---------------2---------------------------|
D|---------------------------------------------------------------------------|
A|--3-----------2------------0-----------------------------------------------|
E|----------------------------------------2----------------------------------|


e|--3------3--------2------2-------3-0---3------1------1---------------------|
B|----3-0--------------3-0-------------0-----------3-0-----------------------|
G|---------------------------------------------------------------------------|
D|---------------------------------------------------------------------------|
A|------------------2--------------------------------------------------------|
E|--3------------------------------0------------3----------------------------|


e|---0-----0-----------------------------------------------------------------|
B|-----1----------4-----------0---1----0-------------------------------------|
G|-------0----------5---5-------0---0----------------------------------------|
D|--------------------5------------------------------------------------------|
A|---3------------3---------------3------------------------------------------|
E|----------------------------3--------3---------3--2------------------------|

(Start Strumming)

Em       Gaug         G   C                   D
When the darts just miss, I just can't resist it


[CHORUS]
          G   Bm      Em            Am   Em  D
Cause I'm a fool for you and the things you do
           G Bm       C   A        G                     D
Cause I'm a fool for you and the things, the things you do
               G  Bm Em G         C Cm G C G
The things you do, the things you do

(Repeat Intro)

[VERSE]
Em            Gaug       G
When you're looking like this
C                    
I just can't resist it
    D 
I know sometimes I hide it
       Em                       Gaug
But I can't this time cause it's gonna defeat me
G              C                 D  
But if you won't believe me, believe me


[CHORUS]
          G   Bm      Em            Am   Em  D
Cause I'm a fool for you and the things you do
           G Bm       C   A        G                     D
Cause I'm a fool for you and the things, the things you do
               G  Bm Em G         C Cm G C G
The things you do, the things you do


[BRIDGE]
Eb        Cm     G                  G      
I know, I know given the chance I'd do it again
           Eb
Cause I can't help myself
               Cm 
Cause I can't stop myself
Am                            D 
I just love being a fool for you


[CHORUS]
          G   Bm      Em            Am   Em  D
Cause I'm a fool for you and the things you do
           G Bm       C   A        G                     D
Cause I'm a fool for you and the things, the things you do
               G  Bm Em G         C Cm G C G
The things you do, the things you do


[OUTRO]
          

e|--3------3--------2------2-----0-----0---3----3--|
B|----3-0--------------3-0---------1-------4----0--|
G|-----------------------------------0-----5----0--|
D|-----------------------------------------5----0--|
A|------------------2------------3---------3----2--|
E|--3--------------------------------------3----3--|




************************************

| x   Dead note
| g   Grace note
| (n) Ghost note
| h   Hammer-on
| p   Pull-off
| r   Release
| >   Accented note
| t   Tapping
| b   Bend
| br  Bend release
| pb  Pre-bend
| pbr Pre-bend release
| /   Slide up
| \   Slide down
| ~   Vibrato
| s   Slap
| P   Pop
| PM  Palm mute
| TR  Trill
| N   Tremolo

************************************
Suggest correction
Creating personal tab
Creating personal tab
You can edit any tab online and save it as your Personal.

You can edit, replace or remove any tab part or add personal notes – all changes will be seen only by you.

Personal tabs can be accessed anytime from any device, even offline.
Learn more »
comments
print report bad tab
guest
You may want to rate the tab now too:
select rating
Wanna post a correction for this tab? Suggest correction