Oops, an error
Loading. Please wait.

Pillowtalk bass

1,579 views 9 this week
1 commentread comment
1 2 3 4 5
x 3
add to favorites
×
Save as Personal and add changes to this tab that will be seen only by you. Learn more ›
×
You can save this tab as Personal to edit and correct it or add notes. All changes will be seen only by you. Learn more »
launch autoscroll
font size
0
reset
guitar tuner
edit
Autoscroll
slow
fast
+/-
esc
set tempo
stop
Author
Difficulty
PILLOWTALK - Zayn Malik
Tabbed by: cesare_moon

Artist: Zayn Malik
Year: 2016

Tuning: EADG

[Intro] - 00.00 - 00.15
G|---------------------------------------------------------------------------|
D|---------------------------------------------------------------------------|
A|---------------------------------------------------------------------------|
E|-0---------------2----------7/2--0---------------2-------7-----7/2---------| 

[Verse] - 00.15 - 00.30 
G|---------------------------------------------------------------------------|
D|---------------------------------------------------------------------------|
A|---------------------------------------------------------------------------|
E|-0---------------2----------7/2--0---------------2-------7-----7/2---------| 

[Pre-chorus] - 00.30 - 00.54
G|---------------------------------------------------------------------------|
D|---------------------------------------------------------------------------|
A|---------------------------------------------------------------------------|
E|-0---------------2----------7/2-0---------------2-------7-----3-----3/2----| 

G|---------------------------------------------------------------------------|
D|---------------------------------------------------------------------------|
A|---------------------------------------------------------------------------|
E|-0---------------2--------------0---------------2-------7------------------| 

[Chorus] - 00.54 - 01.24
G|---------------------------------------------------------------------------|
D|---------------------------------------------------------------------------|
A|---------------------------------------------------------------------------|
E|-0~-------0------2~-------2-7/2----0~-------0------2~------7~----7/2-------| x2

[Verse] - 01.24 - 01.40
G|---------------------------------------------------------------------------|
D|---------------------------------------------------------------------------|
A|---------------------------------------------------------------------------|
E|-0---------------2----------7/2--0---------------2-------7-----7/2---------| 

[Pre-chorus] - 01.40 - 01.55
G|---------------------------------------------------------------------------|
D|---------------------------------------------------------------------------|
A|--------------------------------------------------------------------7/2----|
E|-0---------------2---------------0---------------2-------7-----3-----------| 

[Chorus] - 01.55 - 02.26
G|---------------------------------------------------------------------------|
D|---------------------------------------------------------------------------|
A|---------------------------------------------------------------------------|
E|-0~-------0------2~-------2-7/2----0~-------0------2~------7~----7/2-------| x2

[Bridge] - 02.26 - 02.49
G|---------------------------------------------------------------------------|
D|---------------------------------------------------------------------------|
A|---------------------------------------------------------------------------|
E|-0~-------0------2~-------7/2----0~-------0------2~------7~---12-7/2-------| 

G|---------------------------------------------------------------------------|
D|---------------------------------------------------------------------------|
A|-----------------------------------------------------------------7/2-------|
E|-0~----2-----0-----0------2-----0------------------------------------------|

[Chorus] - 02.49 - End. 
G|---------------------------------------------------------------------------|
D|---------------------------------------------------------------------------|
A|---------------------------------------------------------------------------|
E|-0~-------0------2~-------2-7/2----0~-------0------2~------7~----7/2-------| x2

Thank you! :)

************************************

| /  Slide up
| ~  Vibrato

************************************
Suggest correction
Creating personal tab
Creating personal tab
You can edit any tab online and save it as your Personal.

You can edit, replace or remove any tab part or add personal notes – all changes will be seen only by you.

Personal tabs can be accessed anytime from any device, even offline.
Learn more »
Give kudos to tab author, rate the tab!
1 2 3 4 5
comments
print report bad tab
1 comment total.
0 reply
lynzwaytrash 31 Feb 24, 2016 10:54 AM, edited at 03:54 pm

just played it through and it seems pretty good to me :))

guest
You may want to rate the tab now too:
select rating
Wanna post a correction for this tab? Suggest correction