Oops, an error
Loading. Please wait.

Trop Sensible Tab

by Zaz
6,895 views 12 this week
8 commentsread comments
1 2 3 4 5
accurate
x 3
add to favorites
launch autoscroll
font size
0
reset
how to read this tab
guitar tuner
Autoscroll
slow
fast
+/-
esc
set tempo
stop
Help us to improve Ultimate-Guitar.com Take our survey!
×
Author
Difficulty
novice
-------------------------------------------------------------------------------
                           Trop Sensible - Zaz
-------------------------------------------------------------------------------

-- Tabbed by: Momro
-- E-mail: Momro123@gmail.com
-- Tuning: Standard

[Picking Pattern - Intro]
    1 2 3 4 5 6 7 8 | 1 2 3 4 5 6 7 8 | 1 2 3 4 5 6 7 8 | 1 2 3 4 5 6 7 8 |
E-|---1-x-----1-x---|---0-x-----0-x---|---1-x-------x---|---0-x-----0-x---|
B-|---3-x-----3-x---|---1-x-----1-x---|---3-x-------x---|---1-x-----1-x---|
G-|---2-x-----2-x---|---2-x-----2-x---|---2-x-------x---|---2-x-----2-x---|
D-|-0---x-0-----x-0-|---2-x-----2-x---|-0---x-0-----x---|0--2-x-----2-x---|
A-|-----x-------x---|-0---x-0-----x-0-|-----x-------x---|-0---x-0-----x-0-|
E-|-----x-------x---|-----x-------x---|-----x-------x---|-----x-------x---|

[Picking Pattern - Verse]
    1 2 3 4 5 6 7 8 | 1 2 3 4 5 6 7 8 |
E-|---1-x-------x---|---0-x-------x---|
B-|---3-x-------x---|---1-x-------x---|
G-|---2-x-------x---|---2-x-------x---|
D-|-0---x-0-----x-0-|---2-x-------x---|
A-|-----x-------x---|-0---x-0-----x-0-|
E-|-----x-------x---|-----x-------x---|

[Intro]
Dm Am Dm Am

[Chorus]
Dm
  T'es Trop Sensible c'est vrai
  Am
Et les autres voient pas qui tu es
Dm
  Trop Sensible je sais
  Am
Moi aussi ça a faillit me tuer

[Chorus]

[Verse]
Tu t'angoisses tu paniques t'es en crise
Quand tu te prends en plein cœur
Sans pouvoir l'exprimer tout de suite
C'est trop fort, ça f'rait peur
Solitaire dans ton monde tu chantes aux étoiles et
câlines la terre
Tu sens notre mère qui gronde
A bout de force mais ne peut plus se taire
Tu sens la souffrance comme une bombe
Le tic-tac, en sourdine
Les puissants qui nous mènent à la tombe
Et se moquent de notre sort en prime

J'aimerais te dire que ce monde livide finira par se réveiller,
Mais j'ai bien peur que ça ne tienne qu'à un fil
Mais rassures toi, toi tu seras sauvé.

[Chorus] (x2)

[Verse]
Avec ta petite gueule d'ange
Tu nous fais voir des masques colorés
Tous ces gens qui te croient innocent
Mais toi tu voyages dans l'obscurité
Avec ta petite gueule d'ange
Tu laisses croire et ne semble qu'indiquer
Que dans ta tête y'a que des fleurs des sourires,
Des papillons et du sucre vanillé
Je ressens ta souffrance
Je la vois, je l'écoute
Être en rage et déçu c'est normal
Suggest correction
Give kudos to tab author, rate the tab!
1 2 3 4 5
comments
print report bad tab
8 comments total. Showing first comments.
0 reply
Karinarahmap 10 wrote on June 21 2014, 01:57 am

The tabs sound not correct

0 reply
Momro 141 wrote on June 21 2014, 02:54 am

Where do you think doesn't it sound correct?

0 reply
Karinarahmap 10 wrote on June 22 2014, 02:56 am

The Intro part. I don't know but It sounds different from the original music.

guest
You may want to rate the tab now too:
select rating
Wanna post a correction for this tab? Suggest correction