Oops, an error
Loading. Please wait.

Tell Me What You Want tab

by Zebra
535 views 6 this week
2 commentsread comments
1 2 3 4 5
x 3
add to favorites
×
Save as Personal and add changes to this tab that will be seen only by you. Learn more ›
×
You can save this tab as Personal to edit and correct it or add notes. All changes will be seen only by you. Learn more »
launch autoscroll
font size
0
reset
how to read this tab
guitar tuner
edit
Autoscroll
slow
fast
+/-
esc
set tempo
stop
Author
Difficulty
The Entirety of Tell Me What You Want, Plus a little extra in the
solo that Randy always throws in live. Rock on

Tab by King Kenroy


[Verse 1]

        G    Am              Am   G              Am   F
e|------3----0---------------5----3--------------5----1-----------------------|
B|------3----1---------------5----3--------------5----1-----------------------|
G|------0----2---------------5----4--------------5----2-----------------------|
D|------0----2---------------7----5--------------7----3-----------------------|
A|------2----0----------------------------------------------------------------|
E|------3---------------------------------------------------------------------|
  I've been wasting my time oh oh oh oh oh


        G    Am              Am   G              Am   D
e|------3----0---------------5----3--------------5----10----------------------|
B|------3----1---------------5----3--------------5----10----------------------|
G|------0----2---------------5----4--------------5----11----------------------|
D|------0----2---------------7----5--------------7----0-----------------------|
A|------2----0----------------------------------------------------------------|
E|------3---------------------------------------------------------------------|
     I am losing my mind            My head's on the floor, for evermore.


       G    Am              Am   G              Am   F
     I have given you all,  All all       all that I had.
       G    Am              Am   G              Am   D
   But with the slam of the door, you've driven me mad. Now I'm sad.


  [Chorus]

                G   Am                Am7/G D7/F#        F
e|--------------3----0------------------0----2-----------1--------------------|
B|--------------3----1------------------1----1-----------1--------------------|
G|--------------0----2------------------0----2-----------2--------------------|
D|--------------0----2------------------2----0-----------3--------------------|
A|--------------2----0------------------0----------------3--------------------|
E|--------------3-----------------------3----2-----------1--------------------|
  Tell me what you want, tell me what you want

               G   Am                Am7/G D7/F#        F
  Tell me what you want, tell me what you want

(after Verse 2 skip 4th to solo)


[Verse 2]

You have taken it all, All of my love,
Unrelenting you told, You told me a lie, So I could cry.
There aren't words for it all, All that I feel.
With the palm of your hand, You crushed me for real, Now what's the deal.


Repeat Chorus:


[Solo]

Listen to the Record for appropriate timing

Oooh! Watch me Now!

(Pick Slide)

e|--------------------------------------------------------------------------------------------------------|
B|--------------------------------10-12-12b-12-10-13b-13-12-----------------------------------------------|
G|---7b~-----10b~----12b~-----------------------------------12b---15b-------------------------------------|
D|----------------------------------------------------------------13b-------------------------------------|
A|--------------------------------------------------------------------------------------------------------|
E|--------------------------------------------------------------------------------------------------------|

e|------------------------------------------------------5--5-----5~--------7-----7~-----------------------|
B|--11-11-8-8-8\7-7-7\5-5-5\3-3-3\1-1-------------------5--5-----5~--------7-----7~-----------------------|
G|-------------------------------------5~----2-3-6-5~---5--5--7--5~--------7--9--7~-----------------------|
D|-------------------------------------7~---------------5--5--7--5~--------7--9--7~-----------------------|
A|--------------------------------------------------------------------------------------------------------|
E|--------------------------------------------------------------------------------------------------------|

e|---------------------5-----5~----7-----7~---------------7----7-8-7-8-10-8-10\12-10h12\14-12h14p12h14----|
B|---------------------5--7--5~----7--9--7~-----8-10-8-10---10--------------------------------------------|
G|----7~---5-6-9-8~----5--7--5~----7--9--7~---9-----------------------------------------------------------|
D|----9~--------------------------------------------------------------------------------------------------|
A|--------------------------------------------------------------------------------------------------------|
E|--------------------------------------------------------------------------------------------------------|

e|13-15-13h15-13-15\18-15-18\19-17-19-19b-17-18-19-19b~---------------------------------------------------|
B|--------------------------------------------------------------------------------------------------------|
G|--------------------------------------------------------------------------------------------------------|
D|--------------------------------------------------------------------------------------------------------|
A|--------------------------------------------------------------------------------------------------------|
E|--------------------------------------------------------------------------------------------------------|


[Bridge]

    F                                   D   Dsus4 D   Dadd9 D   Dsus4 D
I'm wishing to God you're gonna say you miss me
    F                                              D   Dsus4 D Dadd9 D Dsus4 D
I'm crossing my fingers that you say your're gonna kiss me
    F                                   D   Dsus4 D   Dadd9 D   Dsus4 D
I'm wishing to God you're gonna say you miss me
     F                             G
I've got my fingers crossed you'll kiss me one more time


[Verse 3]

                     G    Am
So I can say I ain't been wasting my time, oh oh oh oh oh
I am losing my mind, my head's on the floor for evermore.
I have given you all, All that I had.
But with the slam of the door, You've driven me mad. Now I'm sad.


Repeat Chorus and fade


I need you so bad.
                                             D   G   D (end on downstrum)
You got to tell me, tell me what you want...

************************************

| h  Hammer-on
| p  Pull-off
| b  Bend
| \  Slide down
| ~  Vibrato

************************************

            
            
Suggest correction
Creating personal tab
Creating personal tab
You can edit any tab online and save it as your Personal.

You can edit, replace or remove any tab part or add personal notes – all changes will be seen only by you.

Personal tabs can be accessed anytime from any device, even offline.
Learn more »
Give kudos to tab author, rate the tab!
1 2 3 4 5
comments
print report bad tab
2 comments total.
+1 reply
russandsmokers 10 Mar 28, 2017 07:14 PM

any more from no telling lies?l?? sure missing alot of greatest catalog

guest
You may want to rate the tab now too:
select rating
Wanna post a correction for this tab? Suggest correction