Oops, an error
Loading. Please wait.

Anthem Ukulele Chords

version 1
version 1

Intro

  • Tabs Dan's guitar adopted for ukulele.

Whole song

Interactive

19 views 1 this week
no commentswrite comment
1 2 3 4 5
3 more votes to show rating
add to favorites
launch autoscroll
font size
0
reset
transpose
0
reset
display chords
guitar tuner
Autoscroll
slow
fast
+/-
esc
set tempo
stop
Help us to improve Ultimate-Guitar.com Take our survey!
×
Author
Difficulty
About this tab version
Tabs Dan's guitar adopted for ukulele. Was this info helpful? Yes No
[Intro]

A|-3-3-3-2-2-2-3-3-3-2-2-2-0-0-2-2-| 
E|-3-3-3-3-3-3-3-3-3-3-3-3-3-3-3-3-|
C|---------------------------------|
G|---------------------------------|(x6)


[Verse]

     I got a girlfriend...

A|--3-3-x-3-x-3-x-3-x-2-x-2-x-2-x-2-x-0-x-0-x-0-x-0-x-0-x-0-x-0-x-0-|
E|--0-0-x-0-x-0-x-0-x-3-x-3-x-3-x-3-x-0-x-0-x-0-x-0-x-1-x-1-x-1-x-1-|
C|--0-0-x-0-x-0-x-0-x-2-x-2-x-2-x-2-x-0-x-0-x-0-x-0-x-0-x-0-x-0-x-0-|
G|--0-0-x-0-x-0-x-0-x-0-x-0-x-0-x-0-x-2-x-2-x-2-x-2-x-2-x-2-x-2-x-2-|(x4)


************************************

| x  Dead note

************************************
Suggest correction
Give kudos to tab author, rate the tab!
1 2 3 4 5
comments
print report bad tab
guest
You may want to rate the tab now too:
select rating
Wanna post a correction for this tab? Suggest correction