Oops, an error
Loading. Please wait.

Anthem Tab

version 1
version 1

Whole song

Interactive

33,102 views 12 this week
8 commentsread comments
1 2 3 4 5
x 22
add to favorites
launch autoscroll
font size
0
reset
how to read this tab
guitar tuner
Autoscroll
slow
fast
+/-
esc
set tempo
stop
Help us to improve Ultimate-Guitar.com Take our survey!
×
Author
Inro Guitar 1

e-------------------------------------------------|
B-13-13-13-12-12-12-13-13-13-12-12-12-10-10-12-12-|
G-12-12-12-12-12-12-12-12-12-12-12-12-12-12-12-12-|
D-------------------------------------------------|
A-------------------------------------------------|
E-------------------------------------------------|

After fifth time through play this

E--------------|
B-10-10-10-10--|
G-12-12-12-12--|
D--------------|       Not exact Strumming
A--------------|
E--------------|

Intro Guitar 2

e------------------|
B------------------|
G-5----------------|
D-5---5---3-5------| Listen to song for strumming
A-3---5---3-5------|
E-----3---1-3------|


Verse Chords

e--3-3-5-1--       e---3---1--|
B--5-3-5-1--       B-1-3-1-1--|
G--5-4-5-2--  OR   G-0-0-2-2--|
D--5-5-7-3--       D-2-0-2-3--|
A--3-5-7-3--       A-3-x-0-3--|
E----3-5-1--       E---3---1--|


Pre Chorus


E---------------------------------------------|
B---------------------------------------------|
G------------55--5----------------------------|
D-77--7/33--355--555--5/77--7/33--3/-5--5--5--|
A-77--7/33--333--355--5/77--7/33--3/-5--5--5--|
E-55--5/11--1-----33--3/55--5/11--1/-3333333--|
                                      .. ..


Chorus


E----------|
B----------|
G-5--------|
D-5-5-7-3--| x2   (Strumming not shown, just chords)
A-3-5-7-3--|
E---3-5-1--|


Solo
E-------------------------------------------------------1212--1313--|
B-----13-12-------------------------------13-12---12-13-----13------|
G-/12-------14-12-------14-12----------12-------14------------------|
D-----------------15-14-------15-14-12------------------------------|
A-------------------------------------------------------------------|
E-------------------------------------------------------------------|

E---12-13-15----12-13-15----11h12----|
B-13---------13----------13------13--|
G------------------------------------|
D------------------------------------|
A------------------------------------|
E------------------------------------|


Let us go part (Wah Peddle I guess)

E-----
B-----
G--5--
D--5-- Play with wah peddle
A--3--
E-----

Get up get up

E--------------|
B--------------|
G-5-5-5-5-5-5--|
D-5R5R5R5R5R5--|
A-3-3-3-3-3-3--|
E--------------|


Chorus (Palm muted)


E----------|
B----------|
G-5--------|
D-5-5-7-3--| (Listen to song to hear when to not palm mute)
A-3-5-7-3--|
E---3-5-1--|
  . . . .

Ending

E-------------|
B-------------|
G---------5~--|
D-3-3-3-3-5~--|
A-3-3-3-3-3~--|
E-1-1-1-1-----|


Song Order

Intro (Both GUitars
Verse
Pre-Chorus
Chorus
Intro
Verse
Pre-Chorus (End pre-chorus without palm muted notes)
Chorus
Solo (Play chorus underneath with Guitar 2)
Let us Go part
Get up get up!
Chorus (Palm muted)
Chorus (Add intro guitar 1 after 3 times through)
Ending

Key

.Palm mute
/slide
~Let right
R Rest
Suggest correction
comments
print report bad tab
8 comments total. Showing first comments.
+1 reply
vkvkvk 20 Jun 18, 2006 04:51 AM

yeh m8 thats spot on!

0 reply
Mcr14 7,513 Aug 28, 2006 07:10 AM

thank u very much 5 stars from me

0 reply
WCS_Is_Worse1 10 Nov 09, 2006 04:30 PM

ummmmm

guest
You may want to rate the tab now too:
select rating
Wanna post a correction for this tab? Suggest correction