Oops, an error
Loading. Please wait.

Anthem Bass Tab

version 3
version 3

Whole song

Interactive

5,700 views 6 this week
1 commentread comment
1 2 3 4 5
excellent!
x 5
add to favorites
launch autoscroll
font size
0
reset
guitar tuner
Autoscroll
slow
fast
+/-
esc
set tempo
stop
Help us to improve Ultimate-Guitar.com Take our survey!
×
Author
 Intro(x2)
g------------------------------|
d------------------------------|
a--333333----------------------|
e--------333333-1111111-0h1p3--|

 Verse (x1)
g----------------------------------------------------|
d-5-3-2-0---235------------320--235-------------3-3--|
a----------3-----235--753------3-----235--753--------|
e---------------3----5----1---------3----5----1--1---|

 Pre Chorus (x1)
g----------------------------------------|
d----------------------------------------|
a----------3333--------------------------|
e-5555/1111----3333/5555/1111/3333333----|

 Chorus (x1)
g---------------------------------------------------------------------------|
d-------------------------------------------------------7---7---3-----------|
a-33333333---------------------------33333333----------7-7-7-7-3-3------2-3-|
e---------33333333-5555432-111111111---------33333333-5---5---1----1-3-5----|

 Pre Verse (x2)
g------------------------------|
d------------------------------|
a--333333----------------------|
e--------333333-1111111-0h1p3--|

 Verse (x1)
g----------------------------------------------------|
d-5-3-2-0---235------------320--235-------------3-3--|
a----------3-----235--753------3-----235--753--------|
e---------------3----5----1---------3----5----1--1---|

 Pre Chorus (x1)
g----------------------------------------|
d----------------------------------------|
a----------3333--------------------------|
e-5555/1111----3333/5555/1111/3333111----|

 Chorus (x1)
g---------------------------------------------------------------------------|
d-------------------------------------------------------7---7---3-----------|
a-33333333---------------------------33333333----------7-7-7-7-3-3------2-3-|
e---------33333333-5555432-111111111---------33333333-5---5---1----1-3-5----|

 Guitar Solo (x2)
g------------------------------------|
d------------------------------------|
a-33333333---------------------------|
e---------33333333-55555555-11111111-|

 Bridge (x2)
g-----------------------------------------|
d--235------------320--235------------320-|
a-3-----235--753------3-----235--753------|
e------3----5----1---------3----5----1----|

 Chorus (x2)
g---------------------------------------------------------------------------|
d-------------------------------------------------------7---7---3-----------|
a-33333333---------------------------33333333----------7-7-7-7-3-3------2-3-|
e---------33333333-5555432-111111111---------33333333-5---5---1----1-3-5----|

Ending
g----------------------------------------------|
d--235------------320--235------------320------|
a-3-----235--753------3-----235--753------3~~~-|
e------3----5----1---------3----5----1---------|




Suggest correction
What's this?
You can suggest a correction to this tab. Community and Mods will review your correction and vote to approve or reject it.
comments
print report bad tab
1 comment total.
+1 reply
chrisjenks 2,378 wrote on August 6 2008, 04:02 pm

i think the start of the verse is 3-2-0-2 not 5-3-2-0

guest
You may want to rate the tab now too:
select rating
Please do not post tabs as comments. Select "correction" instead!