Oops, an error
Loading. Please wait.

Back To Normal Tab

version 1
version 1

Whole song

Interactive

3,719 views 1 this week
4 commentsread comments
1 2 3 4 5
x 4
add to favorites
launch autoscroll
font size
0
reset
how to read this tab
guitar tuner
Autoscroll
slow
fast
+/-
esc
set tempo
stop
Help us to improve Ultimate-Guitar.com Take our survey!
×
Band:    Zebrahead 
Song:    Back to Normal
Album:   Broadcast to the World

Intro: Guitar 2
--------------------------------------------------------|
--------------------------------------------------------|
--------------------------------------6-6-5-5-----------|
-6-6-x-6--6/10-10-x-10--10/3-3-x-3-3--6-6-5-5----x2-----|
-6-6-x-6--6/10-10-x-10--10/3-3-x-3-3--4-4-3-3-----------|
-4-4-x-4--4/8--8--x-8---8-/1-1-x-1-1--------------------|

Intro part 2: Guitar 2                 
---------------------------------------|-------------------------------|
---------------------------------------|-------------------------------|
-----5---8-5----------5---8-5-------x3-|-----5---8-5---------5---8-5---|
-5-6---6-----6-5--------6-----6-5------|-5-6---6-----6-5-------6-------|
--------------------6------------------|-------------------6-----------|
---------------------------------------|-------------------------------|

Intro: Guitar 1
----------------------------|
----------------------------|
----------------------------|
-/66666666-3333-2222----x4--|
-/66666666-3333-2222--------|
-/44444444-1111-0000--------|

Verse:
----------------------------------------------------------------------------
----------------------------------------------------------------------------
-----------------------------------------------------------------6-6-x-6-6--
-6-6-x-6-6-6-x-6-6--10-10-x-10-10-10-x-10-10--3-3-x-3-3-3-x-3-3--6-6-x-6-6--
-6-6-x-6-6-6-x-6-6--10-10-x-10-10-10-x-10-10--3-3-x-3-3-3-x-3-3--4-4-x-4-4--
-4-4-x-4-4-4-x-4-4--8--8--x-8--8--8--x-8--8---1-1-x-1-1-1-x-1-1-------------

----------------|
----------------|
-6-x-6-6--------|
-6-x-6-6----x2--|
-4-x-4-4--------|
----------------|

Pre-Chorus:
-4~-8~--3~-----------------|
-4~-8~--3~-----------------|
-5~-9~--2~--66666666-------|
-6~-10~-3~--66666666-------|
-6~-10~-3~--44444444-------|
-4~-8~--1~-----------------|
            ^gradually unpalmute

Chorus:
---------------------------------------------------------------------------|
---------------------------------------------------------------------------|
---------------------------------------------------66666666-------------x2-|
-66666666--101010101010101010--33333333--44444444--66666666--3333--2222----|
-66666666--101010101010101010--33333333--44444444--44444444--3333--2222----|
-44444444--8-8-8-8-8-8-8-8-8---11111111--22222222------------1111--0000----|

Intro

Verse

Pre-Chorus

Chorus

Interlude Guitar 1:
------------4~--8~---1~--------------|
------------4~--8~---1~--------------|
------------5~--9~---2~--66666666----|
-6~--6~-----6~--10~--3~--66666666----|
-6~--6~-----6~--10~--3~--44444444----|
-4~--4~-----4~--8~---1~--------------|
                          ^gradually unpalmute

Solo: Guitar 2
----------------------------------------------------------------------------
----------------------------------------------------------------------------
-6-6-66-5-5-5h6p5----6-6-66-5-5-5h6p5----6-6-55-8-8-5h6p5----3333-5555-6666-
------------------6-------------------6-------------------6-----------------
----------------------------------------------------------------------------
----------------------------------------------------------------------------

----------|
----------|
--8888/---|
----------|
----------|
----------|

Intro 

Chorus

Intro 

-----|
-----|
-----|
--6~-|
--6~-|
--4~-|





Suggest correction
comments
print report bad tab
4 comments total. Showing first comments.
0 reply
Jimpan 63 Feb 01, 2007 10:46 AM

uh... couldn't give this more than 2

0 reply
Jimpan 63 Feb 01, 2007 10:46 AM

reason? not a complete tab. well done for a live tab tho :S i guess. lol

0 reply
redsoxxplayer 504 Feb 01, 2007 09:48 PM

i'm working on the Waste of Mind album, but i'll try to find time to tab the rest of this song

guest
You may want to rate the tab now too:
select rating
Wanna post a correction for this tab? Suggest correction