Oops, an error
Loading. Please wait.

Back To Normal Tab

version 2
version 2

Whole song

Interactive

3,729 views 1 this week
4 commentsread comments
1 2 3 4 5
please rate
add to favorites
launch autoscroll
font size
0
reset
how to read this tab
guitar tuner
Autoscroll
slow
fast
+/-
esc
set tempo
stop
Help us to improve Ultimate-Guitar.com Take our survey!
×
Author
Difficulty
Tuning
novice
D A D G B E
Band:    Zebrahead
Song:    Back to Normal
Album:   Broadcast to the World
Tuning:  Drop D

You can figure out the order it's easy enough

Intro: Guitar 2
|--------------------------------------------------------|
|--------------------------------------------------------|
|--------------------------------------6-6-8-8-----------|
|-6-6-x-6--6/10-10-x-10--10/3-3-x-3-3--6-6-8-8----x2-----|
|-6-6-x-6--6/10-10-x-10--10/3-3-x-3-3--4-4-6-6-----------|
|-6-6-x-6--6/10-10-x-10--10/3-3-x-3-3--------------------|

Intro part 2: Guitar 2
|---------------------------------------|
|---------------------------------------|
|-----5---8-5----------5---8-5---5------|
|-5-6---6-----6-5--------6-----6--------|
|--------------------6------------------|
|---------------------------------------| X3

then this
|---------------------------------------|
|---------------------------------------|
|-----5---8-5----------5---8-5----------|
|-5-6---6-----6-5--------6--------------|
|--------------------6------------------|
|---------------------------------------|


Intro - Guitar 1
|----------------------|
|----------------------|
|----------------------|
|-66666666-2222-1111---|
|-66666666-2222-1111---|
|-66666666-2222-1111---|

Verse
|---------------------------------------------------------------------------|
|---------------------------------------------------------------------------|
|----------------------------------------------------------------6-6-x-6-6--|
|-6-6--6-6-6-x-6-6--10-10-x-10-10-10-x-10-10--3-3-x-3-3-3-x-3-3--6-6-x-6-6--|
|-6-6--6-6-6-x-6-6--10-10-x-10-10-10-x-10-10--3-3-x-3-3-3-x-3-3--4-4-x-4-4--|
|-6-6--6-6-6-x-6-6--10-10-x-10-10-10-x-10-10--3-3-x-3-3-3-x-3-3-------------|

----------------|
----------------|
-6-x-6-6--------|
-6-x-6-6--------|
-4-x-4-4--------|
----------------|

Pre-Chorus
|------------xxxxxxxx-------|
|------------xxxxxxxx-------|
|------------xxxxxxxx-------|
|-6~-10~-3~--xxxxxxxx-------|
|-6~-10~-3~--xxxxxxxx-------|
|-6~-10~-3~--xxxxxxxx-------|


Chorus
|-------------------------------------------------------------------------|
|-------------------------------------------------------------------------|
|---------------------------------------------------66666666--------------|
|-66666666--101010101010101010--33333333--44444444--66666666--2222--1111--|
|-66666666--101010101010101010--33333333--44444444--44444444--2222--1111--|
|-66666666--101010101010101010--33333333--44444444------------2222--1111--|

Breakdown - no guitar

Solo: Guitar 2
|--------------------------------------------------------------------------|
|--------------------------------------------------------------------------|
|-6-6-66-5-5------6-6-66-5-5-------6-6-55-8-8-66-5------------5555-6666----|
|------------88\6------------88\6-------------------6666-8888--------------|
|--------------------------------------------------------------------------|
|--------------------------------------------------------------------------|

End on

|----|
|----|
|----|
|-6~-|
|-6~-|
|-6~-|

Any corrections send to callum_thomson666@hotmail.com
Suggest correction
Give kudos to tab author, rate the tab!
1 2 3 4 5
comments
print report bad tab
4 comments total. Showing first comments.
0 reply
Thnks-4-Th-Mmrs 249 wrote on September 16 2007, 08:01 am

You Can Also Instead Of The Power Chord

D|-6-
A|-4-

Play The Top Strings Version Which Is

D|-11-
A|-11-
D|-11-

I Find This One Much Easier.

Great Tab!
Good User

0 reply
CrashAshes43 150 wrote on April 27 2010, 09:27 pm

I just have a problem with the chords. The power chords don't have the higher notes that you hear in the verse and pre chorus. From looking at other zebrahead songs (like Dear You (Far Away)) I think the chords are played like this:

Intro: Guitar 2
|-4-4-x-4--4/8--8--x-8---8-/1-1-x-1-1--4-4-6-6-----------|
|-4-4-x-4--4/8--8--x-8---8-/1-1-x-1-1--5-5-8-8-----------|
|-5-5-x-5--5/8--8--x-8---8-/1-1-x-1-1--6-6-8-8-----------|
|-6-6-x-6--6/10-10-x-10--10/3-3-x-3-3--6-6-8-8----x2-----|
|-x-x-x-x--x-x--x--x-x---x-/x-x-x-x-x--4-4-6-6-----------|
|-6-6-x-6--6/10-10-x-10--10/3-3-x-3-3--------------------|
You can play those chords by placing your 3rd finger on the E string, 4th on the D string, and barring the G B and e strings with your first. In the case of the first chord, you can use your 2nd finger on the 5.

Pre-Chorus
|-3~-8-~-1~--xxxxxxxx-------|
|-3~-8-~-1~--xxxxxxxx-------|
|-3~-8-~-1~--xxxxxxxx-------|
|-6~-10~-3~--xxxxxxxx-------|
|-6~-10~-3~--xxxxxxxx-------|
|-6~-10~-3~--xxxxxxxx-------|
Bar E A and D with your 3rd finger, and bar G B and e with your first.

And for the solo:
|-9-9-99-8-8------------9-9-88-11-11-99-8----------------8888-9999-|
|------------1111\9------------------------9999-11111111-----------|
|-6-6-66-5-5---------x2-6-6-55-8--8--66-5----------------5555-6666-|
|------------8-8-\6------------------------6666-8-8-8-8------------|
|------------------------------------------------------------------|
|------------------------------------------------------------------|

Aaaand in the chorus one guitar plays:
|-99999999--9999--8888--|
|-----------------------|
|-66666666--6666--5555--|
|-----------------------|
|-----------------------|
|-----------------------|
during
|-----------------------|
|-----------------------|
|-66666666--------------|
|-66666666--2222--1111--|
|-44444444--2222--1111--|
|-----------2222--1111--|

Sorry I just threw myself in your tab there :P

0 reply
CrashAshes43 150 wrote on April 27 2010, 09:30 pm

Whoops, for the chorus I meant

6

guest
You may want to rate the tab now too:
select rating
Wanna post a correction for this tab? Suggest correction