Oops, an error
Loading. Please wait.

Crome Tab

220 views 1 this week
1 commentread comment
1 2 3 4 5
please rate
add to favorites
launch autoscroll
font size
0
reset
how to read this tab
guitar tuner
Autoscroll
slow
fast
+/-
esc
set tempo
stop
Help us to improve Ultimate-Guitar.com Take our survey!
×
Zebrahead
The Yellow tabs
by Ryan

Crome - Standard Tuning

Chorus
=======
1)-0-0-0--0-0-0--4-4-4--4-4-4--0-0-0--0-0-0--2-2-2--2-2-2
2)-0-0-0--0-0-0--4-4-4--4-4-4--2-2-2--2-2-2--2-2-2--2-2-2
3)-1-1-1--1-1-1--5-5-5--5-5-5--2-2-2--2-2-2--3-3-3--3-3-3-
4)-2-2-2--2-2-2--6-6-6--6-6-6--2-2-2--2-2-2--4-4-4--4-4-4-
5)-2-2-2--2-2-2--6-6-6--6-6-6--0-0-0--0-0-0--4-4-4--4-4-4-
6)--------------------------------------------------------
Suggest correction
Give kudos to tab author, rate the tab!
1 2 3 4 5
comments
print report bad tab
1 comment total.
0 reply
redsoxxplayer 504 wrote on July 16 2007, 09:32 pm

i think it goes more like this

-000-000---222-222---000-000---222-222-----|
-000-000---222-222---222-222---444-444-----|
-222-222---333-333---222-222---444-444-----|
-222-222---444-444---222-222---444-444-----|
-111-111---444-444---000-000---222-222-----|
-000-000---222-222-------------------------|

guest
You may want to rate the tab now too:
select rating
Wanna post a correction for this tab? Suggest correction