Oops, an error
Loading. Please wait.

Dear You Far Away Tab

5,517 views 1 this week
no commentswrite comment
1 2 3 4 5
accurate
x 4
add to favorites
launch autoscroll
font size
0
reset
how to read this tab
guitar tuner
Autoscroll
slow
fast
+/-
esc
set tempo
stop
Help us to improve Ultimate-Guitar.com Take our survey!
×
Author
Difficulty
Tuning
whoomit 1,492
intermediate
D A D G B E
Tabbed by: Whoomit
Email: callum_thomson666@hotmail.com

Well I can't promise this is right...
But I might aswell try and help out.
I tried to incorporate some strumming patterns
but I dunno if they're right, see for yourselves!

Tuning:Drop D

Intro 
   v v v^v^v  v^v^v v v v^v^v v^   v
e|---0-00000--00000---0-00000-00---0-|
B|---0-00000--00000---0-00000-00---0-|   
G|---7-76666/996667---7-76664-44/6-2-|   
D|---0-00000--00000---0-00000-00---0-|
A|-5-5-54444/774445-5-5-54442-22/4-0-|
E|-0-0-00000--00000-0-0-00000-00---0-| X2

Verse  
    v v v^ ^v v^ ^v^
e|----0--0--0--0-000-|
B|----3--3--3--3-333-|    
G|----2--2--2--2-222-|
D|----0--0--0--0-000-|
A|--0-0-00-00-00-000-|
E|--0-0-00-00-00-000-| X4

    v v v^ ^v v^ ^v^
e|----0--0--0--0-000-3--|
B|----0--0--0--0-000-3--|    
G|----0--0--0--0-000-3--|
D|----5--5--5--5-555-5--|
A|--5-5-55-55-55-555-5--|
E|--5-5-55-55-55-555-5--|

Chorus
e|---------------------------------------|
B|---------------------------------------|
G|---------------------------------------|
D|-00000000-44444444-5555555555555555----|
A|-00000000-44444444-5555555555555555----|
E|-00000000-44444444-5555555555555555----| X3

e|---------------------------3----|
B|---------------------------3----|
G|---------------------------3----|
D|-00000000-44444444-555555555----|
A|-00000000-44444444-555555555----|
E|-00000000-44444444-555555555----|


Lead guitar 1:58
 Tremelo picked
e|----------------------|
B|----------------------|
G|----------------------|
D|--12----7---12---11---|
A|----------------------|
E|----------------------| 

e|--------------------------|
B|--------------------------|
G|--------------------------|
D|--12----7---12---11-12-14-|
A|--------------------------|
E|--------------------------|

e|------------------------------------------|
B|------------------------------------------|
G|------------------------------------------|
D|--16----12---16---14--12--11--12----------|
A|------------------------------------------|
E|------------------------------------------|

Bridge
e|-----------------------------------|
B|-----------------------------------|
G|-----------------------------------| 
D|-55555555555555557777777777777777--|
A|-55555555555555557777777777777777--|
E|-55555555555555557777777777777777--|
pm.******************************** - gradually release

e|------------------------------------------------------------------|
B|------------------------------------------------------------------|
G|------------------------------------------------------------------|
D|----------------------------------------------------5--5--5--5-5--|
A|-0000000000000000444444444444444455555555555555555--5--5--5--5-5--|
E|-0000000000000000444444444444444455555555555555555--5--5--5--5-5--|
   ** ** * ** *** *** ** * ** *** *** ** * ** *** *

End on 
e|--0--|
B|--0--|
G|--0--|
D|--0--|
A|--0--|
E|--0--|

Intro
Verse x2
Chorus
Intro
Verse
Chorus
Chorus & lead
Breakdown [no guitar]
Bridge
Chorus

| v  downstroke
| ^  upsrtoke
| /  slide up
| \  slide down
| h  hammer-on
| p  pull-off
| ~  vibrato
| +  harmonic
| x  Mute note
===============================================================================
Suggest correction new What's this?
You can suggest a correction to this tab. Community and Mods will review your correction and vote to approve or reject it.
comments
print report bad tab
guest
You may want to rate the tab now too:
select rating
Please do not post tabs as comments. Select "correction" instead!