Oops, an error
Loading. Please wait.

Enemy Tab

1,170 views 1 this week
2 commentsread comments
1 2 3 4 5
excellent!
x 3
add to favorites
launch autoscroll
font size
0
reset
how to read this tab
guitar tuner
Tab Pro tools
  • play this tab
  • loop segment
  • change instrument
  • show fretboard
  • metronome
Autoscroll
slow
fast
+/-
esc
set tempo
stop
Artist: Zebrahead
Album : Broadcast to the World
Track : Enemy


Tabbed by: Brian Btuami



Intro
[Guitar1]
   e|-------------------------------------------|-----End with-----|
   B|-------------------------------------------|------------------|
   G|-444-7-77-3-33-4-444-444-7-77--------------|--------4---------| x3
   D|-xxx-x-xx-x-xx-x-xxx-xxx-x-xx-5-55-4-444---|--------4\--------|
   A|-222-5-55-1-11-2-222-222-5-55-x-xx-x-xxx---|--------2---------|
   E|------------------------------3-33-2-222---|------------------|

[Guitar2] (Comes in after 1 of the above)
   e|-------------------------------------------|-----End with------|
   B|-------------------------------------------|-------------------|
   G|-444-7-77-3-33-4-444-444-7-77--------------|--------4----------| x2
   D|-444-7-77-3-33-4-444-444-7-77-5-55-4-444---|--------4\---------|
   A|-222-5-55-1-11-2-222-222-5-55-5-55-4-444---|--------2----------|
   E|------------------------------3-33-2-222---|-------------------|


Verse
   Sounds like glass slide and muffled strings on E A D, see what sounds best.


PreChorus
      [Both Guitars] then     [Guitar1]                  [Guitar2]
   e|-----------------|------------------------|---------PICKSLIDE--------|
   B|-----------------|------------------------|--------------------------|
   G|---4-4-4-4-4-4---|------------------------|-xxxx---------------------|
   D|---4-4-4-4-4-4---|----xxxxxxxxxxxxxxxx----|-xxxxxxxxx----------------|
   A|---2-2-2-2-2-2---|----xxxxxxxxxxxxxxxx----|---xxxxxxxxxxxxxxxxxx-----|
   E|-----------------|----xxxxxxxxxxxxxxxx----|---------xxxxxxxxxxxxxxx--|

Chorus
[Both Guitars]
   e|---------------------------------------------------------------------|
   B|---------------------------------------------------------------------|
   G|-4444444444444444-7777777777777777-----------------------------------| x2
   D|-4444444444444444-7777777777777777-5555555555555555-4444444444444444-|
   A|-2222222222222222-5555555555555555-5555555555555555-4444444444444444-|
   E|-----------------------------------3333333333333333-2222222222222222-|

PostChorus (Same as Intro)

Verse

PreChorus

Chorus x2

Solo Rythem (Solo is glass slide on E A D strings)
   e|------------------|     |----------------|
   B|------------------|     |----------------|
   G|-4-xx-4--44-x-444-| x3  |-4-xxx-4-xxx-4--|
   D|-4-xx-4~-44-x-444-|     |-4-xxx-4-xxx-4\-|
   A|-2-xx-2--22-x-222-|     |-2-xxx-2-xxx-2--|
   E|------------------|     |----------------|

Breakdown
   e|---------------------------------------------------------------------|
   B|---------------------------------------------------------------------|
   G|-4444444444444444------------------7777777777777777------------------| x2
   D|-4444444444444444-5555555555555555-7777777777777777-4444444444444444-|
   A|-2222222222222222-5555555555555555-5555555555555555-4444444444444444-|
   E|------------------3333333333333333------------------2222222222222222-|

Chorus x3

Outro x3 (Same as Intro)


| /  slide up
| \  slide down
| h  hammer-on
| p  pull-off
| ~  vibrato
| +  harmonic
| x  Mute note

Email at divine236@gmail.com to say how much this sucks or how cool I am.
comments
We did not receive enough feedback on this tab! Please rate:
print report bad tab
1 2 3 4 5
2 comments total.
0 reply
MFZBen wrote on December 24 2006, 02:39 pm

nice tab

0 reply
HighMountain wrote on April 10 2007, 11:18 am

dude this is gr8

I want to post or [tab]
guest
You may want to rate the tab now too:
select rating
Please do not post tabs as comments. Select "correction" instead!