Oops, an error
Loading. Please wait.

Falling Apart Bass Tab

version 1
version 1

Whole song

Interactive

5,303 views 3 this week
2 commentsread comments
1 2 3 4 5
excellent!
x 4
add to favorites
launch autoscroll
font size
0
reset
guitar tuner
Autoscroll
slow
fast
+/-
esc
set tempo
stop
Help us to improve Ultimate-Guitar.com Take our survey!
×
Author
-------------------------------------------------------------------------------
			     FALLING APART - ZEBRAHEAD
-------------------------------------------------------------------------------

Tabbed By : Patrick McGuire
e-mail: patrickmcguire561@hotmail.com

Tuning:EADG

After the guitar intro

("Everything's falling apart!")
G|---------------------------------------|
D|---------------------------------------|
A|---------5555-4444--------7777-5555----| (×2)
E|-22222222----------5555555-------------|

 VERSE
G|-------------------------|
D|-------------------------|(×3)
A|--------55-44----77-55---|
E|--22----------55---------|

G|---------------|
D|---------------|
A|---------------|
E|-2-0-2-0-3-5-2-|
  
 PRE-CHORUS  ("Manipulation's on my mind.......")
G|-------------------------------------------|
D|-------------------------------------------|
A|-----------5555-4444----------7777--5555---|
E|--22222222-----------55555555--------------|

G|---------------------------------|
D|---------------------------------|
A|----------5555-4444----------7---| 
E|-22222222-----------55555555-----|

 CHORUS ("Everything's Falling Apart.....")
G|-------------------------|
D|-------------------------|
A|-------------------------|   (×2)
E|-222222222---5555-0000---|

G|-------------|
D|-------------|
A|----55----77-|  (×2)
E|-22----55----|

 When the guitar goes back into the intro
G|---------------------|
D|---------------------|
A|----55-44-----77-55--|
E|-22-------55---------|

   VERSE
    
   PRE-CHORUS
 
   CHORUS

  PAUSE, DONT PLAY DURING GUITAR SOLO, BEGIN PLAYING THIS AT THE END OF THE SOLO  
G|------|
D|------|
A|-5-4--|
E|-----5|

   CHORUS  (×2)
   

 END ON 
G|--|
D|--|
A|--|
E|-2|

OK, this was an easy tab to do, took me no longer than 10 minutes to figure out and learn it.
this was my first tab so go easy on me. enjoy!

===============================================================================
Suggest correction new What's this?
You can suggest a correction to this tab. Community and Mods will review your correction and vote to approve or reject it.
comments
print report bad tab
2 comments total.
+1 reply
ThePlanFan 19 wrote on May 2 2009, 10:12 pm

Great tab. thanks.

0 reply
crazywhiateboy5 55 wrote on May 17 2009, 12:49 pm

any other tab u would like to see?

guest
You may want to rate the tab now too:
select rating
Please do not post tabs as comments. Select "correction" instead!