Oops, an error
Loading. Please wait.

Get Nice Tab

version 1
version 1

Whole song

Interactive

4,760 views 12 this week
no commentswrite comment
1 2 3 4 5
1 last vote to show rating
add to favorites
launch autoscroll
font size
0
reset
how to read this tab
guitar tuner
Autoscroll
slow
fast
+/-
esc
set tempo
stop
Help us to improve Ultimate-Guitar.com Take our survey!
×
Author
Difficulty
Tuning
intermediate
D# G# C# F# A# D#
-------------------------------------------------------------------------
                                 ZEBRAHEAD - GET NICE
-------------------------------------------------------------------------
Tab by: B0mbzaway
Tuning: Half-Step Down

Intro Lead
e|----------------------------------------------|
B|-------17--17------17--17--16--17-------------|
G|----16--16--16--16--16--16--16--16------------|  x3
D|--14----------14-------------------14---------|   Alternate PM
A|----------------------------------------------|
E|----------------------------------------------|



Intro Lead
e|-----------------------------------------------------------|
B|-------17--17------17--17--16--17--19--17--16--17--19------|
G|----16--16--16--16--16--16--16--16--16--16--16--16---------|   x1
D|--14----------14-------------------------------------------|   Alternate PM
A|-----------------------------------------------------------|
E|-----------------------------------------------------------|



Intro Rythm
e|--------------------------|
B|--------------------------|
G|---9----4----6----2-------|
D|---9----4----6----2-------|
A|---7----2----4----0-------|
E|--------------------------|

Verse Lead
e|----------------------------------------|
B|---5----4----2----4----     -10---------|
G|---4----4----2----4----x3 ---9----------|  Listen For Strumming Pattern
D|---2----2----2----4----      7----------|
A|----------------------------------------|
E|----------------------------------------|

Verse Rythm
e|--------------------------|
B|--------------------------|
G|--------------------------|
D|---9----4----6----2-------|
A|---7----2----4----0-------|  Palm Mute
E|--------------------------|



Pre-Chorus (Oh Oh oh...)
e|----------------------------|
B|----------------------------|
G|----------------------------|
D|----------------------------|   x2
A|--2--4--6--7----------------|  Alternate Picking
E|----------------------------|


Chorus
e|--------------------------|
B|--------------------------|
G|---9----4----6----2-------|
D|---9----4----6----2-------|
A|---7----2----4----0-------|
E|--------------------------|


Solo  (Low Mic sounds better)
e|-------------------------------------------------------------|
B|--9-/-12-/-9----14-/-12----9-/-12----7-/-9---5--4-5----------|   Slide
G|-------------------------------------------------------------|
D|-------------------------------------------------------------|   x3
A|-------------------------------------------------------------|
E|-------------------------------------------------------------|

e|--------------------------------------------------------|
B|--/7-----/5-----/7-----/9-------------------------------|   Slide
G|--------------------------------------------------------|
D|--------------------------------------------------------|
A|--------------------------------------------------------|
E|--------------------------------------------------------|

e|----------------------------------------------------------|
B|----------------------------------------------------------|
G|---16-17-17---14-16--13-14--11-13--9--8-9-----------------|
D|----------------------------------------------------------|
A|----------------------------------------------------------|
E|----------------------------------------------------------|

e|----------------------------------------------------------|
B|----------------------------------------------------------|
G|---14-16-16--13-14--11-13--9-11--8------------------------|
D|----------------------------------------------------------|
A|----------------------------------------------------------|
E|----------------------------------------------------------|

e|--------------------------------------------------------|
B|--------------------------------------------------------|
G|---/-6--/-8--/-9--/-11----------------------------------|   Slide
D|--------------------------------------------------------|
A|--------------------------------------------------------|
E|--------------------------------------------------------|

e|--------------------------------------------------------------------|
B|--------------------------------------------------------------------|
G|---13-14-13-------------13-14-13------------------------------------|
D|--------------16---13--------------16----13------13-14-16-14--------|
A|-----------------------------------------------16-------------------|
E|--------------------------------------------------------------------|


Interlude
e|----------------------------------------------------------|
B|----------------------------------------------------------|
G|-----9---8---9---11---13---14-----------------------------|
D|-----x---x---x---x-----x----x-----------------------------|
A|-----7---6---7---9----11---12-----------------------------|
E|----------------------------------------------------------|

Interlude
e|--------------------------|
B|--------------------------|
G|--------------------------|
D|---9----4----6----2-------| Alternate PM Listen for Strumming Pattern
A|---7----2----4----0-------|
E|--------------------------|
Suggest correction
Give kudos to tab author, rate the tab!
1 2 3 4 5
comments
print report bad tab
guest
You may want to rate the tab now too:
select rating
Wanna post a correction for this tab? Suggest correction