Oops, an error
Loading. Please wait.

Girlfriend Tab

version 1
version 1

Whole song

Interactive

5,431 views 6 this week
no commentswrite comment
1 2 3 4 5
please rate
add to favorites
launch autoscroll
font size
0
reset
how to read this tab
guitar tuner
Autoscroll
slow
fast
+/-
esc
set tempo
stop
Help us to improve Ultimate-Guitar.com Take our survey!
×
Contributor
Difficulty
Bair 2,875
novice
-----------------------------------------------------------------
Girlfriend - Zebrahead
-----------------------------------------------------------------
Tabbed by: Bair
Email: bair_morritt@hotmail.com

Tuning: Standard


Intro:
e|----------------------------------------------|
B|----------------------------------------------|
G|--5----5----------------5----5----------------|
D|--5----5--22-2-333-333--5----5--22-2-333-333--|
A|--3----3--22-2-333-333--3----3--22-2-333-333--|
E|----------00-0-111-111----------00-0-111-111--|
"Hey! Hey! You! You! I don't like your girlfriend!...."

Verse:
e|-----------------------------------------------------------------------|
B|-----------------------------------------------------------------------|
G|--55-555-555-555-------------------------------------------------------|
D|--55-555-555-555--55-555-555-555--77-777-777-777--33-333-333-333-(X2)--|
A|--33-333-333-333--55-555-555-555--77-777-777-777--33-333-333-333-------|
E|------------------33-333-333-333--55-555-555-555--11-111-111-111-------|
"You're so fine I want you mine You're so delicious. I think about you all the time...."

Pre-Chorus:
e|----------------------------------------------|
B|----------------------------------------------|
G|----------------------------------------------|
D|--7----2----5----3--5-------------------------|
A|--7----2----5----3--5-------------------------|
E|--5----0----3----1--3-------------------------|
"She's like so whatever You could do so much better...."

Chorus:
e|-------------------------------------------|
B|-------------------------------------------|
G|--55--------------------5------------------|
D|--55--55--77--33--(X3)--5--22-2-333-333----|
A|--33--55--77--33--------3--22-2-333-333----|
E|------33--55--11-----------00-0-111-111----|
"Hey! Hey! You! You! I don't like your girlfriend!...."

e|-------------------------------------------|
B|-------------------------------------------|
G|--55--------------------5------------------|
D|--55--55--77--33--(X3)--5--22-2-333-333----|
A|--33--55--77--33--------3--22-2-333-333----|
E|------33--55--11-----------00-0-111-111----|
"Hey! Hey! You! You! I know that you like me...."

Verse 2:
e|-----------------------------------------------------------------------|
B|-----------------------------------------------------------------------|
G|--55-555-555-555-------------------------------------------------------|
D|--55-555-555-555--55-555-555-555--77-777-777-777--33-333-333-333-(X2)--|
A|--33-333-333-333--55-555-555-555--77-777-777-777--33-333-333-333-------|
E|------------------33-333-333-333--55-555-555-555--11-111-111-111-------|
"I can see the way, I see the way you look at me And even when you look away...."

Pre-Chorus:
e|----------------------------------------------|
B|----------------------------------------------|
G|----------------------------------------------|
D|--7----2----5----3--5-------------------------|
A|--7----2----5----3--5-------------------------|
E|--5----0----3----1--3-------------------------|
"She's like so whatever You could do so much better...."

Chorus:
e|-------------------------------------------|
B|-------------------------------------------|
G|--55--------------------5------------------|
D|--55--55--77--33--(X3)--5--22-2-333-333----|
A|--33--55--77--33--------3--22-2-333-333----|
E|------33--55--11-----------00-0-111-111----|
"Hey! Hey! You! You! I don't like your girlfriend!...."

e|-------------------------------------------|
B|-------------------------------------------|
G|--55--------------------5------------------|
D|--55--55--77--33--(X3)--5--22-2-333-333----|
A|--33--55--77--33--------3--22-2-333-333----|
E|------33--55--11-----------00-0-111-111----|
"Hey! Hey! You! You! I know that you like me...."

Interlude: (Just lyrics & a couple C chord rings)

Then the chorus is played over and over until the end.

Lyrics:
--------------------------------------------------------------------------
Hey! Hey! You! You! 
I don't like your girlfriend! 
No way! No way! 
I think you need a new one
Hey! Hey! You! You! 
I could be your girlfriend

Hey! Hey! You! You! 
I know that you like me
No way! No way! 
No it's not a secret
Hey! Hey! You! You! 
I want to be your girlfriend

You're so fine
I want you mine
You're so delicious
I think about you all the time
You're so addictive
Don't you know what I could do to make you feel alright? 
(alright, alright, alright)
Don't pretend I think you know I'm damn precious
And hell yeah
I'm the mother fuckin' princess
I can tell you like me too and you know I'm right
(I'm right, I'm right, I'm right)

She's like so whatever
You could do so much better
I think we should get together now

Hey! Hey! You! You! 
I don't like your girlfriend! 
No way! No way! 
I think you need a new one
Hey! Hey! You! You! 
I could be your girlfriend

Hey! Hey! You! You! 
I know that you like me
No way! No way! 
No it's not a secret
Hey! Hey! You! You! 
I want to be your girlfriend

I can see the way, I see the way you look at me
And even when you look away I know you think of me
I know you talk about me all the time again and again
(And again and again and again)
So come over here, tell me what I want to hear
Better yet make your girlfriend disappear
I don't want to hear you say her name ever again
(And again and again and again! )

Cause she's like so whatever
You could do so much better
I think we should get together now

Hey! Hey! You! You! 
I don't like your girlfriend! 
No way! No way! 
I think you need a new one
Hey! Hey! You! You! 
I could be your girlfriend

Hey! Hey! You! You! 
I know that you like me
No way! No way! 
No it's not a secret
Hey! Hey! You! You! 
I want to be your girlfriend

In a second you'll be wrapped around my finger
Cause I can, cause I can do it better
There's no other
So when's it gonna sink in
She's so stupid
What the hell were you thinking? 
FUCK
In a second you'll be wrapped around my finger
Cause I can, cause I can do it better
There's no other
So when's it gonna sink in
She's so stupid
What the hell were you thinking? 

Hey! Hey! You! You! 
I don't like your girlfriend! 
No way!
I think you need a new one
Hey! Hey! You! You! 
I could be your girlfriend

Hey! Hey! You! You! 
I know that you like me
No way! No way! 
No it's not a secret
Hey! Hey! You! You! 
I want to be your girlfriend

Hey! Hey! You! You! 
I don't like your girlfriend! 
No way! No way! 
I think you need a new one
Hey! Hey! You! You! 
I could be your girlfriend

Hey! Hey! You! You! 
I know that you like me
No way! No way! 
No it's not a secret
Hey! Hey! You! You! 
I want to be your girlfriend
Suggest correction What's this?
You can suggest a correction to this tab. Community and Mods will review your correction and vote to approve or reject it.
comments
We did not receive enough feedback on this tab! Please rate:
print report bad tab
1 2 3 4 5
I want to post or [tab]
guest
You may want to rate the tab now too:
select rating
Please do not post tabs as comments. Select "correction" instead!