Oops, an error
Loading. Please wait.

Good Thing Tab

844 views 1 this week
no commentswrite comment
1 2 3 4 5
1 last vote to show rating
add to favorites
launch autoscroll
font size
0
reset
how to read this tab
guitar tuner
Autoscroll
slow
fast
+/-
esc
set tempo
stop
Help us to improve Ultimate-Guitar.com Take our survey!
×
Author
-------------------------------------------------------------------------------
			     GOOD THING - Zebrahead
-------------------------------------------------------------------------------

Tabbed by: Ben A
Email: benbowlsbeamers@msn.com

Tuning: Standard

Intro
Guitar 1:
e|----------|----------|----------|----------|
B|----------|----------|----------|----------|
G|----------|-77777777-|-99999999-|-55555555-| (x2)
D|-55555555-|-77777777-|-99999999-|-55555555-|
A|-55555555-|-55555555-|-77777777-|-33333333-|
E|-33333333-|----------|----------|----------|

Guitar 2:
e|-------------------------|-------------------------|-------------------------|
B|-------------------------|-------------------------|-------13-13-------13-13-|
G|-12-12-11-11-12-12-11-11-|-12-12-11-11-------------|-------------------------|
D|-------------------------|-------------12-12-12-12-|-14-14-------14-14-------|
A|-------------------------|-------------------------|-------------------------|
E|-------------------------|-------------------------|-------------------------|

e|-------------------------|
B|-------------------------|
G|----------12-------12----| (x2)
D|-10-10-10-------10-------|
A|-------------------------|
E|-------------------------|

Verse
Guitar 1:
e|----------|----------|----------|----------|
B|----------|----------|----------|----------|
G|----------|-444------|----------|/99997777-| (x2)
D|-555------|-444------|-222------|-xxxxxxxx-|
A|-555------|-222------|-222------|/77775555-|
E|-333------|----------|-000------|----------|

e|----------|----------|----------|----------|
B|----------|----------|----------|----------|
G|----------|-44444444-|----------|/99997777-| (x2)
D|-55555555-|-44444444-|-22222222-|-xxxxxxxx-|
A|-55555555-|-22222222-|-22222222-|/77775555-|
E|-33333333-|----------|-00000000-|----------|
PM ........   ........   ........   ........

Pre Chorus
Guitars 1 & 2:
e|---------------------|
B|---------------------|
G|---------------------|
D|-55----5-------------|
A|-55-x6-5-(Pickslide)-|
E|-33----3-------------|

Chorus
Guitar 1:
e|----------|----------|----------|----------|
B|----------|----------|----------|----------|
G|----------|-77777777-|-99999999-|-55555555-| (x4)
D|-55555555-|-77777777-|-99999999-|-55555555-|
A|-55555555-|-55555555-|-77777777-|-33333333-|
E|-33333333-|----------|----------|----------|

Guitar 2:
e|-------------------------|  
B|-------------------------|  
G|-12-12-11-11-12-12-11-11-|x3
D|-------------------------|  
A|-------------------------|  
E|-------------------------|  

e|-------------------------|-------------------------|
B|-------------------------|-------------------------|
G|-12-12-------12-12-14-14-|-12-12-11-11-12-12-14-14-|
D|-------12-12-------------|-------------------------|
A|-------------------------|-------------------------|
E|-------------------------|-------------------------|
	     (1)		       (2)

Repeat All

Interlude: Feedback from chorus, improvise some harmonics and vibrato notes 
if felt nessessary.

Repeat Chorus (x8)

End on
Guitar 1: 
e|---|
B|---|
G|---|
D|-5-|
A|-5-|
E|-3-|

Guitar 2:
e|----|
B|----|
G|-12-|
D|----|
A|----|
E|----|

That should be it, feel free to comment/email with any suggestions!


| /  slide up
| \  slide down
| h  hammer-on
| p  pull-off
| ~  vibrato
| +  harmonic
| x  Mute note
===============================================================================
Suggest correction
Give kudos to tab author, rate the tab!
1 2 3 4 5
comments
print report bad tab
guest
You may want to rate the tab now too:
select rating
Wanna post a correction for this tab? Suggest correction