Oops, an error
Loading. Please wait.

Hell That Is My Life Tab

version 2
version 2

Whole song

Interactive

855 views 1 this week
no commentswrite comment
1 2 3 4 5
excellent!
x 2
add to favorites
launch autoscroll
font size
0
reset
how to read this tab
guitar tuner
Tab Pro tools
  • play this tab
  • loop segment
  • change instrument
  • show fretboard
  • metronome
Autoscroll
slow
fast
+/-
esc
set tempo
stop
Band: Zebrahead
Song: The Hell That Is My Life
Album: Playmate Of The Year(2000)
Tuning: Standard


Main Riff in Intro:

|--------|--------|--------|----------|
|---9-12-|---9-12-|---9-10-|---9-10---|
|-9------|--------|-7------|----------|
|--------|-9------|--------|-7--------|
|--------|--------|--------|----------|
|--------|--------|--------|----------|

Intro:

|-------------------------------|
|-------------------------------|
|-9----11--4----6--7----9--2----|
|-9----11--4----6--7----9--2----|
|-7-----9--2----4--5----7--0----|
|-7-----9--2----4--5----7--0----|

Verse: no guitar
Ali Rapping Part: play intro
Chorus:

|---------------------------------------------|
|---------------------------------------------|
|-44444444------------------------------------|
|-44444444-66666666-44444444-22222222-2x------|
|-22222222-66666666-44444444-22222222---------|
|----------44444444-22222222-00000000---------|

Repeat Intro
Solo Riff Before Second Verse:

|---------------------------------|
|-10-9----------------------------|
|------9-------9-11b13-11-9-9--8--|
|---------9h11--------------------|
|---------------------------------|
|---------------------------------|

Repeat Verse
Repeat Rapping Part
Repeat Chorus
Guitar Solo Rhythm: play intro
Guitar Solo:
  T         T         T         T         T       T       T       T        T
|----------------------------------------------------------------------------------|
|-7p4h5p4p0-7p4h5p4p0-7p4h5p4p0-7p4h5p4p0-7p4h5p4-9p4h5p4-7p4h5p4-9p4h5p4-10p4h5p4-|
|----------------------------------------------------------------------------------|
|----------------------------------------------------------------------------------|
|----------------------------------------------------------------------------------|
|----------------------------------------------------------------------------------|
  T       T         T             T             T     T     T     T      T
|----------------------------------------------------------------------------------|
|-9p4h5p4-7p4h5p4-0-7p4h5p4h5p4p0-7p4h5p4h5p4p0-7p4h5-9p4h5-7p4h5-9p4h5-10p4h5-----|
|----------------------------------------------------------------------------------|
|----------------------------------------------------------------------------------|
|----------------------------------------------------------------------------------|
|----------------------------------------------------------------------------------|
  T      T      T      T      T      T      T
|-------------------------------------------------14b16-14-------------------------|
|-9p4h5-10p4h5-12p4h5-10p4h5-12p4h5-14p4h5-12p4h5----------17-16-------------------|
|----------------------------------------------------------------16----------------|
|-------------------------------------------------------------------16-14-13-14----|
|----------------------------------------------------------------------------------|
|----------------------------------------------------------------------------------|

|---------------------------------------------------------------------------------------|
|-------------------------------------9b10r9---97---12-12-12-12------8/9----------------|
|--------------------------------------------9-97-9-11b13-13r11---11-8/9-11p9----9------|
|-14b16-14-13----13-14-16b18p16-14-14----------------------------9-------------11-------|
|-------------14------------------------------------------------------------------------|
|---------------------------------------------------------------------------------------|

|-------------------------------------------|
|----------------------12-----------7h9-----|
|-9h11p9----9----11b13----13r11-6h9-----9---|
|--------11---11----------------------------|
|-------------------------------------------|
|-------------------------------------------|
comments
We did not receive enough feedback on this tab! Please rate:
print report bad tab
1 2 3 4 5
I want to post or [tab]
guest
You may want to rate the tab now too:
select rating
Please do not post tabs as comments. Select "correction" instead!