Oops, an error
Loading. Please wait.

Hello Tomorrow Tab

version 2
version 2

Whole song

Interactive

11,474 views 3 this week
4 commentsread comments
1 2 3 4 5
accurate
x 7
add to favorites
launch autoscroll
font size
0
reset
how to read this tab
guitar tuner
Autoscroll
slow
fast
+/-
esc
set tempo
stop
Help us to improve Ultimate-Guitar.com Take our survey!
×
Song:Hello Tomorrow
Artist:Zebrahead
Album:MFZB
Tabbed by:Duncan S/reelbigfish432

Tab Legend:
pm--- and . =palm mute
b=bend
hb=held bend
~=hold note
fb=feedback
x=string mute
*=tremelo pick (the only time these are used is in the solo when its not really tremelo
but its quite fast)

Awesome song, I know the spacing isnt the best but its easy to figure out the rhythm.
i have the remastered version of the album so it might be a bit different from the single
other album versions.

Two guitars, Guitar 1 is Greg, Guitar 2 is Justin.

Update [19/5/08]: I just edited a note or two for guitar 1's intro riff and guitar 2's 
up riff

Intro:
Guitar 1
   pm---   -----   -----   -----   -----   -----   -----   -----
E|-----------------------------------------------------------------|
B|-----------------------------------------------------------------|
G|-----------------------------------------------------------------|
D|-----------------------9-------9---------------------------------|x3
A|-6-----6-------6-7-7-7-7-7-7-7-7-------9-------9-------9-------9-|
E|-4-4-4-4-4-4-4-4-----------------7-7-7-7-7-7-7-7-6-6-6-6-6-6-6-7-|
     . .   . . .    . . .   . . .  . . .   . . .   . . .   . . .


pm------   -------------|
E|----------------------|
B|----------------------|
G|------------------9---|
D|------------------9---|
A|-------6-------6--7---|
E|-4-4-4-4-4-4-4-4------|
   . . .   . . .


Guitar 1
E|--------------|
B|--------------|
G|--------------|
D|-666666666666-|
A|-666666666666-|
E|-444444444444-|
 |              |
 |Guitar 2      |
E|--------------|
B|--------------|
G|--------------|
D|-xxxxxxxxxxxx-|
A|-xxxxxxxxxxxx-|
E|-xxxxxxxxxxxx-|

Pre-Verse:
Guitar 1
E|------------------------------------------------|
B|------------------------------------------------|
G|----------8/9--------11\8---------4/6----4/8--4-|
D|-6----------------------------------------------|
A|----------6/7---------9\6---------2/4----2/6--2-|
E|-4----------------------------------------------|
 |                                                |
 |Guitar 2                                        |
E|------------------------------------------------|
B|------------------------------------------------|
G|-------------9-99-99-99-------------------------|
D|-6-66-66-66--9-99-99-99--9-99-99-99--9-99-99-99-|
A|-6-66-66-66--7-77-77-77--9-99-99-99--9-99-99-99-|
E|-4-44-44-44--------------7-77-77-77--6-66-66-77-|

Guitar 1
E|------------------------------------------------|
B|------------------------------------------------|
G|----------8/9--------13\11---------8/9---8--6/4-|
D|-6----------------------------------------------|
A|----------6/7--------11\-9---------6/7---6--4/2-|
E|-4----------------------------------------------|
 |                                                |
 |Guitar 2                                        |
E|------------------------------------------------|
B|------------------------------------------------|
G|-------------9-99-99-99-------------------------|
D|-6-66-66-66--9-99-99-99--9-99-99-99--9-99-99-99-|
A|-6-66-66-66--7-77-77-77--9-99-99-99--9-99-99-99-|
E|-4-44-44-44--------------7-77-77-77--6-66-66-77-|

Then the first part of the verse is bass then when it goes 1,2,3 the first time you do this

Verse Interlude 1:
Guitar 1
E|------------------------------|
B|------------------------------|
G|--------9-9----6-6------------|
D|-6-6----9-9----6-6----2-2-4-4-|
A|-6-6----7-7----4-4----2-2-4-4-|
E|-4-4------------------0-0-2-2-|
 |                              |
 |Guitar 2                      |
E|------------------------------|
B|------------------------------|
G|---------------6-6------------|
D|-6-6----2-2----6-6----2-2-4-4-|
A|-6-6----2-2----4-4----2-2-4-4-|
E|-4-4----0-0-----------0-0-2-2-|

Then another part of the verse is bass, faintly over it theres this little riff thing,

Verse Fill 1:
Guitar 1
E|-----------------------------------------------------|
B|-----------------------------------------------------|
G|-----------------------------------------------------|
D|-----------------------------------------------------|
A|-999999999999-666666666666---------------------------|
E|---------------------------777777777777-666666666666-|

then this, again when it goes 1,2,3

note: the numbers for guitar 1s octaves are 11,13,14 and 16
Verse Interlude 2:
Guitar 1
E|---------------------------------------------------|
B|---------------------------------------------------|
G|-----13131313-9-9-16161616-6-6-14141414------------|
D|-6-6----------9-9----------6-6----------2-2----4-4-|
A|-6-6-11111111-7-7-14141414-4-4-11111111-2-2----4-4-|
E|-4-4------------------------------------0-0----2-2-|
 |                                                   |
 |Guitar 2                                           |
E|---------------------------------------------------|
B|---------------------------------------------------|
G|---------------------------6-6---------------------|
D|-6-6----------2-2----------6-6----------2-2----4-4-|
A|-6-6----------2-2----------4-4----------2-2----4-4-|
E|-4-4----------0-0-----------------------0-0----2-2-|

Chorus:

note:on the fourth repeat of the chorus play the f# chord lots of times quickly. also
1 plays semi-quavers instead of just quavers

Guitar 1
E|------------------------------------|
B|------------------------------------|
G|----------9-9-9-9-------------------|
D|-6-6-6-6--9-9-9-9--9-9-9-9--4-4-4-4-|
A|-6-6-6-6--7-7-7-7--9-9-9-9--4-4-4-4-|
E|-4-4-4-4-----------7-7-7-7--2-2-2-2-|
 |                                    |
 |Guitar 2                            |x4
E|------------------------------------|
B|------------------------------------|
G|------------------------------------|
D|-6-6-6-6--2-2-2-2--9-9-9-9--4-4-4-4-|
A|-6-6-6-6--2-2-2-2--9-9-9-9--4-4-4-4-|
E|-4-4-4-4--0-0-0-0--7-7-7-7--2-2-2-2-|

After this play a pre-verse then theres a second verse fill which is;

Verse Fill 2:
Guitar 2
E|----------------|
B|----------------|
G|----------------|
D|-9--6-----11--6-|x2
A|------6---------|
E|----------------|

After the first verse interlude, both verse fills are played

In this verse play verse interlude 2 the first time it goes 1,2,3 but the 2nd time play this

Verse Interlude 3:
Guitar 1                                pm------ ---------|
E|--------------------------------------------------------|
B|--------------------------------------------------------|
G|-----13131313-9-9-16161616-6-6-14141414-----------------|
D|-6-6----------9-9----------6-6----------222222-444444---|
A|-6-6-11111111-7-7-14141414-4-4-11111111-222222-444444---|
E|-4-4------------------------------------000000-222222---|
 |                                        ...... ...... |
 |Guitar 2                                              |
E|------------------------------------------------------|
B|------------------------------------------------------|
G|---------------------------6-6------------------------|
D|-6-6----------2-2----------6-6----------xxxxxx-xxxxxx-|
A|-6-6----------2-2----------4-4----------xxxxxx-xxxxxx-|
E|-4-4----------0-0-----------------------xxxxxx-xxxxxx-|

Then a chorus again.
Then the solo


note:during the solo guitar 2 plays its pre-verse riff

Solo:
Guitar 1
E|-----------------------------------------------------------------|
B|-4--*----------------------------4--*--------------------------7-|
G|-6b8*--hb8-6-4-6-4---4-6-4-6-4---6b8*--hb8-6-4-6-4---4-6-4-6-8---|
D|-------------------6-----------6-------------------6-------------|
A|-----------------------------------------------------------------|
E|-----------------------------------------------------------------|

E|----------------------------------------------------------|
B|-9----*--11---*--9----*--12-12p11-11-11p9-9-9p7-7-7p4-4-4-|
G|-11b13*--13b15*--11b13*-----------------------------------|
D|----------------------------------------------------------|
A|----------------------------------------------------------|
E|----------------------------------------------------------|

E|----------------------------|
B|-7-4---4-----7-4---4--------|
G|-----6---6-4-----6---6-4----|
D|-------------------------6~-|
A| ---------------------------|
E|----------------------------|

It then goes into the intro riff 3 times, then

Outro Fill 1:
Guitar 1
E|------------------------------------|
B|------------------------------------|
G|------9-----------------------------|
D|-6-fb-9-fb-xxxxxxxxxxxxxxxxxxxxxxxx-|
A|-6----7----xxxxxxxxxxxxxxxxxxxxxxxx-|
E|-4---------xxxxxxxxxxxxxxxxxxxxxxxx-|
 |                                    |
 |Guitar 2                            |
E|------------------------------------|
B|------------------------------------|
G|------------------------------------|
D|-6----2----xxxxxxxxxxxxxxxxxxxxxxxx-|
A|-6----2----xxxxxxxxxxxxxxxxxxxxxxxx-|
E|-4----0----xxxxxxxxxxxxxxxxxxxxxxxx-|

After that theres one normal chorus, then a chorus with the solo dubbed over it. Hold
last note.
Its a bit all over the place so the arrangement is

Intro
Pre-Verse
Verse Interlude 1
Verse Fill 1
Verse Interlude 2
Chorus
Pre-Verse
Verse Fill 2
Verse Interlude 2
Verse Fill 1 and 2
Verse Interlude 3
Chorus
Solo
Intro
Outro Fill 1
Chorus
Chorus with solo dubbed over

Thats it! Comments, improvements and ratings are welcome! Enjoy!
Suggest correction
comments
print report bad tab
4 comments total. Showing first comments.
-2 reply
madmetalmike 57 wrote on February 12 2008, 09:39 pm

DUUUUDDDEEE!!!... thank you so much this tab rocks!

-1 reply
CrowLord 51 wrote on June 14 2008, 06:10 am

excellent tab

-1 reply
val.rios 10 wrote on March 24 2009, 12:14 pm

nice!

guest
You may want to rate the tab now too:
select rating
Please do not post tabs as comments. Select "correction" instead!