Oops, an error
Loading. Please wait.

His World tab

version 3
version 3

Interactive

4,916 views 6 this week
2 commentsread comments
1 2 3 4 5
1 last vote to show rating
add to favorites
×
Save as Personal and add changes to this tab that will be seen only by you. Learn more ›
×
You can save this tab as Personal to edit and correct it or add notes. All changes will be seen only by you. Learn more »
launch autoscroll
font size
0
reset
how to read this tab
guitar tuner
edit
Autoscroll
slow
fast
+/-
esc
set tempo
stop
Author
Difficulty
Tabber:
Blue Blur

Contact:
sonic_speed_of_sound@hotmail.com

Notes:
-Um, first tab I've really put out on the net, but not the first tab I've ever created. 
gotten EXTREMELY high demand for this song after my Youtube video, so I finally got to 
Your Welcome, XD.

-Tabbed spaced for better visibility.

His World = Zebrahead (Sonic the Hedgehog 2006 edition)

Intro:

e|----------------------------------|------------------------------|
B|----------------------------------|------------------------------|
G|----4-x----6-x----8-x-------------|--4-x----6-x----2--3--4--6----|
D|----4-x----6-x----8-x----4-/6--6--|--4-x----6-x----2--3--4--6----|
A|----2-x----4-x----6-x----4-/6--6--|--4-x----4-x----0--1--2--4----|
E|-------------------------2-/4--4--|------------------------------|

Verse:

e|--------------------|------------------|-------------------|-------------|
B|--------------------|------------------|-------------------|-------------|
G|----6---6---6---6---|--4---4---4---4---|--6---6---6---6----|-------------|
D|------6---6---6---6-|----4---4---4---4-|----6---6---6---6--|--4-/6--6----|
A|--------------------|------------------|-------------------|--4-/6--6----|
E|--------------------|------------------|-------------------|--2-/4--4----|
        .   .   .   .      .   .   .   .       .   .   .   .

------------------|------------------|--------------|-----------------|
------------------|------------------|--------------|-----------------|
--6---6---6---6---|--4---4---4---4---|--2--3--4--6--|--2--3--4--6~----|
----6---6---6---6-|----4---4---4---4-|--2--3--4--6--|--2--3--4--6~----|
------------------|------------------|--0--1--2--4--|--0--1--2--4~----|
------------------|------------------|--------------|-----------------|
    .   .   .   .      .   .   .   .

Chorus:

e|----------------------------------------------------------------------------|
B|----------------------------------------------------------------------------|
G|----4-4-4-4-4-4-4-4--6-6-6-6-6-6-6-6--8-8-8-8-8-8-8-8-----------------------|
D|----4-4-4-4-4-4-4-4--6-6-6-6-6-6-6-6--8-8-8-8-8-8-8-8--4-4-4-4-4-4-4-4-4----|
A|----2-2-2-2-2-2-2-2--4-4-4-4-4-4-4-4--6-6-6-6-6-6-6-6--4-4-4-4-4-4-4-4-4----|
E|-------------------------------------------------------2-2-2-2-2-2-2-2-2----|

--------------------------------------------------------------------------------|
--------------------------------------------------------------------------------|
--4-4-4-4-4-4-4-4--6-6-6-6-6-6-6-6--8-8-8-8-8-8-8-8--11-11-11-11-11-11-11-11----|
--4-4-4-4-4-4-4-4--6-6-6-6-6-6-6-6--8-8-8-8-8-8-8-8--11-11-11-11-11-11-11-11----|
--2-2-2-2-2-2-2-2--4-4-4-4-4-4-4-4--6-6-6-6-6-6-6-6--9--9--9--9--9--9--9--9-----|
--------------------------------------------------------------------------------|  X4

Verse:

*Note: After hiting the first power chord, lift the fingers slightly so the strings are 
an strum up and down; I'll indicate where to strum like this with a plus sign (+) under 
tab bar.

e|--------------------|------------------|------------------|-------------|
B|--------------------|------------------|------------------|-------------|
G|----4--4-4-4-4-4-4--|--6--6-6-6-6-6-6--|--8--8-8-8-8-8-8--|-------------|
D|----4--4-4-4-4-4-4--|--6--6-6-6-6-6-6--|--8--8-8-8-8-8-8--|--4-/6--6----|
A|----2--2-2-2-2-2-2--|--4--4-4-4-4-4-4--|--6--6-6-6-6-6-6--|--4-/6--6----|
E|--------------------|------------------|------------------|--2-/4--4----|
         + + + + + +        + + + + + +        + + + + + +

------------------|------------------|----------------|
------------------|------------------|----------------|
--4--4-4-4-4-4-4--|--6--6-6-6-6-6-6--|--2--3--4--6----|
--4--4-4-4-4-4-4--|--6--6-6-6-6-6-6--|--2--3--4--6----|
--2--2-2-2-2-2-2--|--4--4-4-4-4-4-4--|--0--1--2--4----|
------------------|------------------|----------------|
     + + + + + +        + + + + + +

e|--------------------|------------------|------------------|-------------|
B|--------------------|------------------|------------------|-------------|
G|----4--4-4-4-4-4-4--|--6--6-6-6-6-6-6--|--8--8-8-8-8-8-8--|-------------|
D|----4--4-4-4-4-4-4--|--6--6-6-6-6-6-6--|--8--8-8-8-8-8-8--|--4-/6--6----|
A|----2--2-2-2-2-2-2--|--4--4-4-4-4-4-4--|--6--6-6-6-6-6-6--|--4-/6--6----|
E|--------------------|------------------|------------------|--2-/4--4----|
         + + + + + +        + + + + + +        + + + + + +

------------------|------------------|------------------|-------------|
------------------|------------------|------------------|-------------|
--4--4-4-4-4-4-4--|--6--6-6-6-6-6-6--|--8--8-8-8-8-8-8--|-------------|
--4--4-4-4-4-4-4--|--6--6-6-6-6-6-6--|--8--8-8-8-8-8-8--|--4-/6--6----|
--2--2-2-2-2-2-2--|--4--4-4-4-4-4-4--|--6--6-6-6-6-6-6--|--4-/6--6----|
------------------|------------------|------------------|--2-/4--4----|
     + + + + + +        + + + + + +        + + + + + +

------------------|------------------|--------------|----------------------------|
------------------|------------------|--------------|----------------------------|
--4--4-4-4-4-4-4--|--6--6-6-6-6-6-6--|--2--3--4--6--|--2--3--4--6~---------------|
--4--4-4-4-4-4-4--|--6--6-6-6-6-6-6--|--2--3--4--6--|--2--3--4--6~---------------|
--2--2-2-2-2-2-2--|--4--4-4-4-4-4-4--|--0--1--2--4--|--0--1--2--4~----12-12/0----|
------------------|------------------|--------------|-----------------12-12/0----|
     + + + + + +        + + + + + +                                    .  .

Chorus:

e|----------------------------------------------------------------------------|
B|----------------------------------------------------------------------------|
G|----4-4-4-4-4-4-4-4--6-6-6-6-6-6-6-6--8-8-8-8-8-8-8-8-----------------------|
D|----4-4-4-4-4-4-4-4--6-6-6-6-6-6-6-6--8-8-8-8-8-8-8-8--4-4-4-4-4-4-4-4-4----|
A|----2-2-2-2-2-2-2-2--4-4-4-4-4-4-4-4--6-6-6-6-6-6-6-6--4-4-4-4-4-4-4-4-4----|
E|-------------------------------------------------------2-2-2-2-2-2-2-2-2----|

--------------------------------------------------------------------------------|
--------------------------------------------------------------------------------|
--4-4-4-4-4-4-4-4--6-6-6-6-6-6-6-6--8-8-8-8-8-8-8-8--11-11-11-11-11-11-11-11----|
--4-4-4-4-4-4-4-4--6-6-6-6-6-6-6-6--8-8-8-8-8-8-8-8--11-11-11-11-11-11-11-11----|
--2-2-2-2-2-2-2-2--4-4-4-4-4-4-4-4--6-6-6-6-6-6-6-6--9--9--9--9--9--9--9--9-----|
--------------------------------------------------------------------------------| X2

Solo:

*I'll put as much as I know, XD.

e|---------------------------|------------------------------|-------------------------|
B|---------------------------|----------------6-9--7-6------|-------------------------|
G|------8-6v----8-6v----6----|----8-6v----8-6----------6-6--|----8-6v----8-6v----6----|
D|----8-------------------8--|--8---------------------------|--8-------------------8--|
A|---------------------------|------------------------------|-------------------------|
E|---------------------------|------------------------------|-------------------------|

------------------------------6----------|
------------6---------7v--------9-7-6----|
--8-6v----6---6v----6-------6------------|
-----------------------------------------|
-----------------------------------------|
-----------------------------------------|

*Will try to learn more and post it I guess.

Ending:

e|--------------------------------------|---------------------------------------|--------|
B|--------------------------------------|---------------------------------------|--------|
G|----4--6-x----------------------------|--4--6-x----2--3--4--6----2--3--4--6~--|--------|
D|----4--6-x----4--4-4-4-4-4-4--4/6--6--|--4--6-x----2--3--4--6----2--3--4--6~--|--2~----|
A|----2--4-x----4--4-4-4-4-4-4--4/6--6--|--2--4-x----0--1--2--4----0--1--2--4~--|--2~----|
E|--------------2--2-2-2-2-2-2--2/4--4--|---------------------------------------|--0~----|
                   + + + + + +

END.

Hope that was good enough for you guys. I think I'll tab the instrumental version next 
the high pitch electric guitar that plays at the beginning of the game. Anyways, enjoy 
rate!

-Blur

            
            
Suggest correction
Creating personal tab
Creating personal tab
You can edit any tab online and save it as your Personal.

You can edit, replace or remove any tab part or add personal notes – all changes will be seen only by you.

Personal tabs can be accessed anytime from any device, even offline.
Learn more »
Give kudos to tab author, rate the tab!
1 2 3 4 5
comments
print report bad tab
2 comments total.
+2 reply
JpHunt609 10 Mar 21, 2008 03:07 PM

sucks. completely wrong.

0 reply
lgunit 10 Feb 18, 2010 04:17 AM

at least your got the chours and the verse right 3*

guest
You may want to rate the tab now too:
select rating
Wanna post a correction for this tab? Suggest correction