Oops, an error
Loading. Please wait.

Lobotomy For Dummies Tab

version 1
version 1

Solo

Whole song

19 views 3 this week
no commentswrite comment
1 2 3 4 5
2 more votes to show rating
add to favorites
launch autoscroll
font size
0
reset
how to read this tab
guitar tuner
Autoscroll
slow
fast
+/-
esc
set tempo
stop
Help us to improve Ultimate-Guitar.com Take our survey!
×
Author
Difficulty
intermediate

                                   Zebrahead - Lobotomy For Dummies
                                    Album - Broadcast to the World
                           Did that f*cking solo(besides begining its so fast)
                                      And some parts for 2 Guitar
  


[INTRO]  Guitar 2 
E|-16-------16-------16----16-----16--------------|
B|------14-------14-----14----14-------14-13-14---|
G|------------------------------------------------| x2
D|------------------------------------------------|
A|------------------------------------------------|
E|------------------------------------------------|

This Part Repeats at Intro and Verses 3 times:
1)0:7
2)0:46
3)1:20

[SOLO 1:28]
E|-------------------------------16---13---13-13-14-13-13-------------------------------------------1213-|
B|--------------------------------------------------------14-14---------------------------------1213-----|
G|----------------13----------------------------------------------------------------------121315---------|
D|------13-15-16-------------13------------------------------------------13---------131516---------------|
A|------------------13-15-16------------------------------------13-15-16------131516---------------------|
E|-------------------------------------------------------------------------------------------------------|

[OUTRO]
E|-16-------16-------16----16-----16--------------|
B|------14-------14-----14----14-------14-13-14---|
G|------------------------------------------------| x2
D|------------------------------------------------|
A|------------------------------------------------|
E|------------------------------------------------|

Thats All, and yes, i know that its not ideal solo, however it was very hard to tab, hope someone
will end it.
Suggest correction
Give kudos to tab author, rate the tab!
1 2 3 4 5
comments
print report bad tab
guest
You may want to rate the tab now too:
select rating
Wanna post a correction for this tab? Suggest correction