Oops, an error
Loading. Please wait.

Playmate Of The Year bass

version 2
version 2

Whole song

Interactive

1,022 views 1 this week
3 commentsread comments
1 2 3 4 5
x 3
add to favorites
×
Save as Personal and add changes to this tab that will be seen only by you. Learn more ›
×
You can save this tab as Personal to edit and correct it or add notes. All changes will be seen only by you. Learn more »
launch autoscroll
font size
0
reset
guitar tuner
edit
Autoscroll
slow
fast
+/-
esc
set tempo
stop
----------------------------------------------------------------------------
		PLAYMATE OF THE YEAR - Zebrahead
----------------------------------------------------------------------------

Tabbed By :Alfonzo the Monkey 
e-mail:alfonzothemonkey@hotmail.co.uk

Tuning:standard

intro:
G|--------------|
D|--------------|
A|77------------| x2
E|--55-77777777-|

verse:
G|------------------------|
D|--9---------------------|
A|77-7---7-----9------9---| x4
E|-----55-5--77-7----7-7--|

pre-chorus:
G|--------------|
D|--------------|
A|77------------| x4
E|--55-77777777-|

chorus:
G|----------------------------------|
D|----------------------------------|
A|77777777--------------------------| X2
E|--------77777777-55555555-77777777|

G|----------|
D|----------|
A|----------|
E|55555555-7|

intro:
G|--------------|
D|--------------|
A|77------------| x2
E|--55-77777777-|

verse:
G|------------------------|
D|--9---------------------|
A|77-7---7-----9------9---| x6
E|-----55-5--77-7----7-7--|

pre-chorus:
G|--------------|
D|--------------|
A|77------------| x4
E|--55-77777777-|

chorus:
G|----------------------------------|
D|----------------------------------|
A|77777777--------------------------| X2
E|--------77777777-55555555-77777777|

G|----------|
D|----------|
A|----------|
E|55555555-7|

solo bit:
G|----------------------------------|
D|----------------------------------|
A|77777777--------------------------| 
E|--------77777777-55555555-77777777|

G|-------------------------------|
D|-------------------------------|
A|77777777-----------------------| 
E|--------77777777-55555555-77777|

intro:
G|--------------|
D|--------------|
A|77------------| x2
E|--55-77777777-|

chorus(extended):

G|----------------------------------|
D|----------------------------------|
A|77777777--------------------------| 
E|--------77777777-55555555-77777777|

G|-----------------|
D|-----------------|
A|77777777---------|
E|--------77777777-|

G|----------------------------------|
D|----------------------------------|
A|77777777--------------------------| x2 
E|--------77777777-55555555-77777777|

G|-----------------|
D|-----------------|
A|-----------------|
E|55555555-77777777|

outro:
G|--------------|
D|--------------|
A|77------------| 
E|--55-77777777-|

the song fades out, so keep playing till it's over. Please Rate.

| /  slide up
| \  slide down
| h  hammer-on
| p  pull-off
| ~  vibrato
| +  harmonic
| x  Mute note
===========================================================================

            
            
Suggest correction
Creating personal tab
Creating personal tab
You can edit any tab online and save it as your Personal.

You can edit, replace or remove any tab part or add personal notes – all changes will be seen only by you.

Personal tabs can be accessed anytime from any device, even offline.
Learn more »
Give kudos to tab author, rate the tab!
1 2 3 4 5
comments
print report bad tab
3 comments total.
0 reply
-spoon- 51 Mar 11, 2007 06:38 AM

your tabs is ok but it looks like you copied the other tab but just sped it up a bit ill give 3*

0 reply
-spoon- 51 Mar 11, 2007 06:39 AM

actually no i take that back
it was just the intro that looked like it was copied all the rest is good

0 reply
chrisjenks 2,712 Aug 06, 2008 11:33 PM

i think there is a fill at the end of the pre chorus and chorus
something like this:

pre-chorus
G|--------------|
D|--------------|
A|77--------679-| x4
E|--55-77777----|

chorus:
G|----------------------------------|
D|----------------------------------|
A|77777777-----------------------679| X2
E|--------77777777-55555555-77777---|

guest
You may want to rate the tab now too:
select rating
Wanna post a correction for this tab? Suggest correction