Oops, an error
Loading. Please wait.

Rated U For Ugly bass

version 2
version 2

Whole song

Interactive

1,871 views 3 this week
2 commentsread comments
1 2 3 4 5
2 more votes to show rating
add to favorites
×
Save as Personal and add changes to this tab that will be seen only by you. Learn more ›
×
You can save this tab as Personal to edit and correct it or add notes. All changes will be seen only by you. Learn more »
launch autoscroll
font size
0
reset
guitar tuner
edit
Autoscroll
slow
fast
+/-
esc
set tempo
stop
Difficulty
intermediate
-------------------------------------------------------------------------------
			     Rated "U" For Ugly - Zebrahead
-------------------------------------------------------------------------------
Album: Broadcast To The World
Played By: Ben "Grand Master B" Osmundson
Tabbed By: Mr.Suicide
E-mail: Mrsuicidemaps@Yahoo.com

Tuning: Standard (EADG)


Intro: Play when the drums come in (0:04)

G|-----------------------------------------------------------------------------|
D|--------------------------------------------------------------99-77-66-------|
A|----------------555------------555------------555-55555555-77----------------|
E|-2x-2x-2-22-22-2------2—22—22-2-—----2—22-22-2-------------------------------|



Verse 1: (0:15)

G|---646---646---646---646---------------------------------|
D|-4-----4-----4-----4-------757---757---979---979---------|4X
A|-------------------------5-----5-----7-----7-------------|
E|---------------------------------------------------------|



Pre-Chorus: (0:35)

G|------|
D|------|
A|------|
E|-2x---|



Chorus: (0:37)

  1st Time                                                                           1st Time      2nd Time
G|--------|-----------------------------------------------------------------------|------------|---------------|
D|--------|----------------77-55-------------99-77-66------------77--77-----------|------------|-----99-77-66--|2X
A|--------|-----------5555----------------77-------------------55--55-------------|--77777777--|--77-----------|
E|-2x-2x--|--22222222------------55555555-------------22222222----------55555555--|------------|---------------|



Intro Riff: (0:59)

G|-----------------------------------------------------------------------|
D|--------------------------------------------------------99-77-66-------|
A|----------555------------555------------555-55555555-77----------------|
E|-2-22-22-2------2—22—22-2-—----2—22-22-2-------------------------------|



Verse 2: (1:09)

G|---646---646---646---646---------------------------------|
D|-4-----4-----4-----4-------757---757---979---979---------|4X
A|-------------------------5-----5-----7-----7-------------|
E|---------------------------------------------------------|



Pre-Chorus: (1:29)

G|------|
D|------|
A|------|
E|-2x---|



Chorus: (1:31)

 |1st Time|                                                                       |  1st Time  |   2nd Time    |
G|--------|-----------------------------------------------------------------------|------------|---------------|
D|--------|----------------77-55-------------99-77-66------------77--77-----------|------------|-----99-77-66--|2X
A|--------|-----------5555----------------77-------------------55--55-------------|--77777777--|--77-----------|
E|-2x-2x--|--22222222------------55555555-------------22222222----------55555555--|------------|---------------|


Pre-Solo: (1:52)

G|----------------------------------|
D|----------------------------------|
A|----------------------------------|
E|-2-22-22-222-5----2—22—22-222-5---|



Solo: (1:58)

G|------------------------------------------------------------------------------|
D|--------------------------------------------------------------------99-77-66--|X2
A|----------55555555----------77777777-----------55555555----------77-----------|
E|-22222222----------55555555-----------22222222----------55555555--------------|



Bridge: (2:18)

G|---646---646---646--------|       |--646---646------|
D|-4-----4-----4------------|3X     |-4----4-----4x---|
A|-------------------55-77--|       |-----------------|
E|--------------------------|       |-----------------|



Chorus: (2:28)

                                                                         |1st/3rd Time|  2nd/4th Time |
G|-----------------------------------------------------------------------|------------|---------------|
D|----------------77-55-------------99-77-66------------77--77-----------|------------|-----99-77-66--|4X
A|-----------5555----------------77-------------------55--55-------------|--77777777--|--77-----------|
E|--22222222------------55555555-------------22222222----------55555555--|------------|---------------|



Outro: (2:49)

G|-------------------------------------------------------------------------|
D|--------------------------------------------------------99-77-66-4444x---|
A|----------555------------555------------555-55555555-77------------------|
E|-2-22-22-2------2—22—22-2-—----2—22-22-2---------------------------------|





| /  slide up
| \  slide down
| h  hammer-on
| p  pull-off
| ~  vibrato
| +  harmonic
| x  Mute note
|(#)X Play this part the number of times it says
===============================================================================

If you have any questions or corrections please e-mail me.


            
            
Suggest correction
Creating personal tab
Creating personal tab
You can edit any tab online and save it as your Personal.

You can edit, replace or remove any tab part or add personal notes – all changes will be seen only by you.

Personal tabs can be accessed anytime from any device, even offline.
Learn more »
Give kudos to tab author, rate the tab!
1 2 3 4 5
comments
print report bad tab
2 comments total.
0 reply
gaff_aff 113 Nov 02, 2008 11:25 PM

Hey, great tab but I can't get my head around the verse! I think it goes:

G|---6467464---6467646--
D|-4----------4--------- etc.

With a similar pattern when you move up to the 5 and 7 on the A string. I might be way off but try playing along and see what you think.

0 reply
VanguardBeta 10 Apr 17, 2009 07:14 AM

Ignore 'gaff_aff', the verse most definitely does not go like he's suggested.

guest
Wanna post a correction for this tab? Suggest correction