Oops, an error
Loading. Please wait.

Strength bass

version 2
version 2

Whole song

241 views 1 this week
no commentswrite comment
1 2 3 4 5
3 more votes to show rating
add to favorites
×
Save as Personal and add changes to this tab that will be seen only by you. Learn more ›
×
You can save this tab as Personal to edit and correct it or add notes. All changes will be seen only by you. Learn more »
launch autoscroll
font size
0
reset
guitar tuner
edit
Autoscroll
slow
fast
+/-
esc
set tempo
stop
Strength By Zebrahead
By: ChaoticStitch
Drop D Tuning

Fun song to play.[=

Intro

G-----------------
D-----------------
A------------0~---
D---0~-0~-0~------

Riff 1

G---------------------
D-----7-5-7-9---------
A---5---------7-9-7---
D---------------------

Riff 2

G--------------------
D--------------------
A---55-5-------------
D--------77-7-55-5---

Chorus

G---------------------------------------------------------------------------
D---------------------------------------------------------------------------
A---5555555555555555-------------------5555555555555555---------------------
D--------------------77777777-55555555------------------77777777-55557788---

Bridge

G------------------------------------------------------------------------------
D------------------------------------------------------------------------------
A---------------5555555555555555-------------------5555555555555555------------
D---0--0--0--0-------------------77777777-55555555------------------77777777---

Outro

G-------------------------------------------------------------------------------------------------
D-------------------------------------------------------------------------------------------------
A---5-5-5-5-5-5-5-5-----------------5-5-5-5-5-5-5-5-----------------5555-5555-555-----------------
D-------------------7-7-7-7-5-5-5-5-----------------7-7-7-7-5-5-5-5---------------7777-5555-555---


Intro    X1
Riff 1   X4
Riff 2   X2
Riff 1   X8
Chorus   X2
Riff 1   X2
Riff 2   X2
Riff 1   X8
Chorus   X2
Riff 2   X2
Chorus   X1
Bridge   X1
Chorus   X2
Outro    X1


            
            
Suggest correction
Creating personal tab
Creating personal tab
You can edit any tab online and save it as your Personal.

You can edit, replace or remove any tab part or add personal notes – all changes will be seen only by you.

Personal tabs can be accessed anytime from any device, even offline.
Learn more »
Give kudos to tab author, rate the tab!
1 2 3 4 5
comments
print report bad tab
guest
You may want to rate the tab now too:
select rating
Wanna post a correction for this tab? Suggest correction