Oops, an error
Loading. Please wait.

Wake Me Up tab

version 1
version 1

Whole song

Interactive

6,831 views 6 this week
3 commentsread comments
1 2 3 4 5
x 3
add to favorites
×
Save as Personal and add changes to this tab that will be seen only by you. Learn more ›
×
You can save this tab as Personal to edit and correct it or add notes. All changes will be seen only by you. Learn more »
launch autoscroll
font size
0
reset
how to read this tab
guitar tuner
edit
Autoscroll
slow
fast
+/-
esc
set tempo
stop
Artist: Zebrahead
Album: Broadcast to the World
Track: Wake Me Up


Tabbed by: Brian Btuami



Intro
[Guitar1]
   e|---------------------------------------------------------------------------|
   B|---------------------------------------------------------------------------|
   G|-44-44-44-----------77-77-77------------------------------99-99-99---------|
   D|-44-44-44-----------77-77-77-----------55-55-55-----------99-99-99---------|
   A|-22-22-22-----------55-55-55-----------55-55-55-----------77-77-77---------|
   E|---------------------------------------33-33-33----------------------------|

[Guitar2]
   e|---------------------------------------------------------------------------|
   B|---------------------------------------------------------------------------|
   G|-44-44-44--67-7777--77-77-77--67-7777------------67-7777--99-99-99-67-7777-|
   D|-44-44-44--67-7777--77-77-77--67-7777--55-55-55--67-7777--99-99-99-67-7777-|
   A|-22-22-22--45-5555--55-55-55--45-5555--55-55-55--45-5555--77-77-77-45-5555-|
   E|---------------------------------------33-33-33----------------------------|


Verse
[Guitar1]
   e|-------------------------------------------------------|
   B|-------------------------------------18r16-------------|
   G|----17h18----17h18----17h18----17h18------17h18--------| x3
   D|-15-------15-------15-------15-------------------------|
   A|-------------------------------------------------------|
   E|-------------------------------------------------------|

   e|-------------------------------------------------------|
   B|-------------------------16-------16h18r16-------------|
   G|----17h18----17h18----17-------16----------17h18-15b~--|
   D|-15-------15-------15-------15-------------------------|
   A|-------------------------------------------------------|
   E|-------------------------------------------------------|

[Guitar2]
   e|---------------------------------------------------------------------------|
   B|---------------------------------------------------------------------------|
   G|-4444444444444444-7777777777777777------------------9999999999999999-------|
   D|-4444444444444444-7777777777777777-7777777777777777-9999999999999999-------|
   A|-2222222222222222-5555555555555555-7777777777777777-7777777777777777-------|
   E|-----------------------------------5555555555555555------------------------|

[Both Guitars]
   e|---------------------------------------------------------------------------|
   B|---------------------------------------------------------------------------|
   G|-44-44-44-----------77-77-77--------------------------------99-99-99-------|
   D|-44-44-44-----------77-77-77------------55-55-55------------99-99-99-------|
   A|-22-22-22-----------55-55-55------------55-55-55------------77-77-77-------|
   E|----------------------------------------33-33-33---------------------------|

   e|-------------------------------|        |-----------------|
   B|-------------------------------|        |-----------------|
   G|-------------------------------|        |-44-44-44-44-4-4-|
   D|----Repeat with some effect----|  then  |-44-44-44-44-4-4-|
   A|-------------------------------|        |-22-22-22-22-2-2-|
   E|-------------------------------|        |-----------------|

Chorus
[Both Guitars]
   e|---------------------------------------------------------------------------|
   B|---------------------------------------------------------------------------|
   G|-7777777777777777----------------------------------------------------------| x2
   D|-7777777777777777-7777777777777777-9999999999999999-7777777777777777-------|
   A|-5555555555555555-7777777777777777-9999999999999999-7777777777777777-------|
   E|------------------5555555555555555-7777777777777777-5555555555555555-------|

   e|-------------------|-------1st-------|-2nd-|-------------------------------|
   B|-------------------|-----------------|-----|-------------------------------|
   G|-------------------|-----------------|-----|-------------------------------|
   D|-99999999-77777777-|-555555555555555-|--5~-|-------------------------------| x2
   A|-99999999-77777777-|-555555555555555-|--5~-|-------------------------------|
   E|-77777777-55555555-|-333333333333333-|--3~-|-------------------------------|


Repeat Verse


Repeat Chorus


Solo
[Guitar1] (Not 100%, but close)
   e|-------------------------------------------------------|
   B|-/18-16----------------16------------------------------|
   G|--------18-17-15-17-18----17-15-------------15-17------|
   D|--------------------------------15-13-15-17------------|
   A|-------------------------------------------------------|
   E|-------------------------------------------------------|

   e|-------------------------------------------------------|
   B|-/18-16----------------16-------------------16---------|
   G|--------18-17-15-17-18-------------15-17-18-------15---|
   D|--------------------------15-16-18-------------16------|
   A|-------------------------------------------------------|
   E|-------------------------------------------------------|

[Guitar2]
   e|---------------------------------------------------------------------------|
   B|---------------------------------------------------------------------------|
   G|-4444444444444444-7777777777777777------------------9999999999999999-------|
   D|-4444444444444444-7777777777777777-7777777777777777-9999999999999999-------|
   A|-2222222222222222-5555555555555555-7777777777777777-7777777777777777-------|
   E|-----------------------------------5555555555555555------------------------|


Break
[Guitar1]
   e|---------------------------------------------------------------------------|
   B|---------------------------------------------------------------------------|
   G|-44-44-44-----------77-77-77------------------------------99-99-99---------| x3
   D|-44-44-44-----------77-77-77-----------77-77-77-----------99-99-99---------|
   A|-22-22-22-----------55-55-55-----------77-77-77-----------77-77-77---------|
   E|---------------------------------------55-55-55----------------------------|
                                                                                
[Guitar2]                                                                       
   e|---------------------------------------------------------------------------|
   B|---------------------------------------------------------------------------|
   G|-44-44-44--67-7777--77-77-77--67-7777------------67-7777--99-99-99-67-7777-| x3
   D|-44-44-44--67-7777--77-77-77--67-7777--77-77-77--67-7777--99-99-99-67-7777-|
   A|-22-22-22--45-5555--55-55-55--45-5555--77-77-77--45-5555--77-77-77-45-5555-|
   E|---------------------------------------55-55-55----------------------------|

[Both Guitars]
   e|---------------------------------------------------------------------------|
   B|---------------------------------------------------------------------------|
   G|---------------------------------------------------------------------------|
   D|-------------------------------------------------///--------------///------|
   A|-------------------------------------------------///Slow Pickslide///------|
   E|-------------------------------------------------///--------------///------|
     

Final Chorus
    Same as Chorus but repeat ending 3 times instead of 2.

Outro
    Same as beginning of verse, end with:
[Guitar1]
   e|----------------|
   B|----------------|
   G|-------15-------| Hammering into fade
   D|----------------|
   A|----------------|
   E|----------------|

[Guitar2]
   e|----------------|
   B|----------------|
   G|----44-44-44----|
   D|----44-44-44----|
   A|----22-22-22----|
   E|----------------|


Email at divine236@gmail.com for corrections, or tell me how awsome I am, or make fun of my mother.

            
            
Suggest correction
Creating personal tab
Creating personal tab
You can edit any tab online and save it as your Personal.

You can edit, replace or remove any tab part or add personal notes – all changes will be seen only by you.

Personal tabs can be accessed anytime from any device, even offline.
Learn more »
Give kudos to tab author, rate the tab!
1 2 3 4 5
comments
print report bad tab
3 comments total.
0 reply
Sammoo 41 Apr 12, 2007 03:04 PM

Perfect again!

0 reply
lalaicessecond 10 Jun 03, 2008 03:54 PM

e|--------------------------------------13-11------------|
B|--11-13-14-11-13-14-11-13-14-11-13-14-------13-14------|
G|-------------------------------------------------------|
D|-------------------------------------------------------|
A|-------------------------------------------------------|
E|-------------------------------------------------------|


e|--------------------------------------13-11------------|
B|-----13-14----13-14----13-14----13-14-------13-14------|
G|--13-------13-------13-------13------------------------|
D|-------------------------------------------------------|
A|-------------------------------------------------------|
E|-------------------------------------------------------|


e|--------------------------------------13-11------------|
B|-----13-14----13-14----13-14----13-14-------13-14------|
G|--11-------11-------11-------11------------------------|
D|-------------------------------------------------------|
A|-------------------------------------------------------|
E|-------------------------------------------------------|


e|--------------------------------------11----11-13------|
B|-----13-14----13-14----13-14----13-14----14-------11~--|
G|--13-------13-------13-------13------------------------|
D|-------------------------------------------------------|
A|-------------------------------------------------------|
E|-------------------------------------------------------|


o_o i dont know xd

0 reply
lalaicessecond 10 Jun 03, 2008 03:55 PM

e|--------------------------------------13-11------------|
B|--11-13-14-11-13-14-11-13-14-11-13-14-------13-14------|
G|-------------------------------------------------------|
D|-------------------------------------------------------|
A|-------------------------------------------------------|
E|-------------------------------------------------------|


e|--------------------------------------13-11------------|
B|-----13-14----13-14----13-14----13-14-------13-14------|
G|--13-------13-------13-------13------------------------|
D|-------------------------------------------------------|
A|-------------------------------------------------------|
E|-------------------------------------------------------|


e|--------------------------------------13-11------------|
B|-----13-14----13-14----13-14----13-14-------13-14------|
G|--11-------11-------11-------11------------------------|
D|-------------------------------------------------------|
A|-------------------------------------------------------|
E|-------------------------------------------------------|


e|--------------------------------------11----11-13------|
B|-----13-14----13-14----13-14----13-14----14-------11~--|
G|--13-------13-------13-------13------------------------|
D|-------------------------------------------------------|
A|-------------------------------------------------------|
E|-------------------------------------------------------|


o_o i dont know xd

guest
Wanna post a correction for this tab? Suggest correction