Oops, an error
Loading. Please wait.

Beautiful Now chords

version 2
version 2

Whole song

by Zedd
6,398 views 12 this week
no commentswrite comment
1 2 3 4 5
1 last vote to show rating
add to favorites
×
Save as Personal and add changes to this tab that will be seen only by you. Learn more ›
×
You can save this tab as Personal to edit and correct it or add notes. All changes will be seen only by you. Learn more »
launch autoscroll
font size
0
reset
transpose
0
reset
display chords
guitar tuner
edit
Autoscroll
slow
fast
+/-
esc
set tempo
stop
Strumming
There is no strumming pattern for this song yet. and get +5 IQ
-------------------------------------------------------------------------------
                             Beautiful Now - Zedd
-------------------------------------------------------------------------------
Tabbed by: Cristea Mihnea
E-mail: cristeamihnea@gmail.com


Tuning: Standard
Capo on 2nd


[Verse]
Am
I see what you're wearing, there's nothing beneath it
       G
Forgive me for staring, forgive me for breathing
                  Dm
We might not know why, we might not know how
            Am                     G
But baby, tonight, we're beautiful now


[Pre-Chorus]
      Em        F G
We're beautiful now
                Am Dm
We're beautiful now


[Chorus]
    F                       C
E|---------------------------------------------------------------------------|
B|---1----1----1----1-------1----1----1----1---------------------------------|
G|--2----2----2----2-------0----0----0----0----------------------------------|
D|---------------------------------------------------------------------------|
A|---------------------------------------------------------------------------|
E|---------------------------------------------------------------------------|      
   We might not know why, we might not know how

   Am                     Em             
E|---------------------------------------------------------------------------|
B|---1----1----1----1-------0----0----0----0---------------------------------|
G|--2----2----2----2-------0----0----0----0----------------------------------|
D|---------------------------------------------------------------------------|
A|---------------------------------------------------------------------------|
E|---------------------------------------------------------------------------| 
   But baby, tonight, we're beautiful now

    F                       C
E|---------------------------------------------------------------------------|
B|---1----1----1----1-------1----1----1----1---------------------------------|
G|--2----2----2----2-------0----0----0----0----------------------------------|
D|---------------------------------------------------------------------------|
A|---------------------------------------------------------------------------|
E|---------------------------------------------------------------------------|   
   We'll light up the sky, we'll open the clouds

    Am                     Em             
E|---------------------------------------------------------------------------|
B|---1----1----1----1-------0----0----0----0---------------------------------|
G|--2----2----2----2-------0----0----0----0----------------------------------|
D|---------------------------------------------------------------------------|
A|---------------------------------------------------------------------------|
E|---------------------------------------------------------------------------|
   Cause baby, tonight, we're beautiful now, we're beautiful


[Instrumental]

   F        C            Am       Em                                        
E|-----------------------0-0-0-0--0------0-----0-----------------------------|
B|----------0-1-1-1--1-3------------0-0----0-0-------------------------------|
G|-2-2-2--2------------------------------------------------------------------|x4
D|---------------------------------------------------------------------------|
A|---------------------------------------------------------------------------|
E|---------------------------------------------------------------------------|


[Verse]
Am
Wherever it's going, I'm gonna chase it
                     Em
What's left of this moment, I'm not gonna waste it
            Dm
Stranded together, our worlds have collided
                Am                      G
This won't be forever, so why try to fight it?


[Pre-Chorus]
      Em        F G
We're beautiful now
                Am Dm
We're beautiful now


[Chorus]
                 F                       C
We might not know why, we might not know how
              Am                   Em
But baby, tonight, we're beautiful now
                    F                   C
We'll light up the sky, we'll open the clouds
               Am                     Em             
Cause baby, tonight, we're beautiful now, we're beautiful


[Instrumental]
F C Am Em x4


[Bridge]
F            C
Let's live tonight like fireflies
Am              Em
And one by one light up the sky
F                 C
We disappear and pass the crown
Am                      G
You're beautiful, you're beautiful


[PRE-CHORUS x2]
      Em        F G
We're beautiful now
                Am Dm
We're beautiful now


[Chorus]
                 F                       C
We might not know why, we might not know how
              Am                   Em
But baby, tonight, we're beautiful now
                    F                   C
We'll light up the sky, we'll open the clouds
               Am                     Em             F
Cause baby, tonight, we're beautiful now, we're beautiful


[Instrumental]
F C Am Em x2

            
            
Suggest correction
Creating personal tab
Creating personal tab
You can edit any tab online and save it as your Personal.

You can edit, replace or remove any tab part or add personal notes – all changes will be seen only by you.

Personal tabs can be accessed anytime from any device, even offline.
Learn more »
Give kudos to tab author, rate the tab!
1 2 3 4 5
comments
print report bad tab
guest
You may want to rate the tab now too:
select rating
Wanna post a correction for this tab? Suggest correction