Oops, an error
Loading. Please wait.

Clarity tab

version 3
version 3

Whole song

Interactive

by Zedd
406 views 6 this week
no commentswrite comment
1 2 3 4 5
2 more votes to show rating
add to favorites
×
Save as Personal and add changes to this tab that will be seen only by you. Learn more ›
×
You can save this tab as Personal to edit and correct it or add notes. All changes will be seen only by you. Learn more »
launch autoscroll
font size
0
reset
how to read this tab
guitar tuner
edit
Autoscroll
slow
fast
+/-
esc
set tempo
stop
Author
Difficulty
-------------------------------------------------------------------------------
                             Clarity - Zedd
-------------------------------------------------------------------------------
Tabbed by: SHurley88
E-mail:

Tuning: Standard

There is a part missing which i haven't worked out yet. which can be chords or single notes.
Its the part with hey-ay hey-ay. Only my second tab so rate and comment.

Intro- palm mute

e|---------------------------------------------------------------------------|
B|-----9-9-9-8-8-8-----------------------------------------------------------|
G|--8------------------------------------------------------------------------|
D|---------------------------------------------------------------------------|
A|---------------------------------------------------------------------------|
E|---------------------------------------------------------------------------|

Verse x4

e|---------------------------------------------------------------------------|
B|---------------------------------------------------------------------------|
G|-8-8-5-6-8-10-8-5-6-8-6-5-3-5---alternate ending on-1--instead of 5--------|
D|---------------------------------------------------------------------------|
A|---------------------------------------------------------------------------|
E|---------------------------------------------------------------------------|

pre chorus

e|-------------------------------------------------------9---8---------------|
B|---9---9--------9---11---11-------9---9--------6---9-----------------------|
G|-8---8---8----8---8----8--------8---8---8----8---8---8---8-----------------|
D|---------------------------------------------------------------------------|
A|---------------------------------------------------------------------------|
E|---------------------------------------------------------------------------|

If our love is.....

e|---11-8-8------------------------------8-----------------------------------|
B|-9--------11----11-9-11-11-9-11-11-11----8/9-9-----------------------------|
G|---------------------------------------------------------------------------|
D|---------------------------------------------------------------------------|
A|---------------------------------------------------------------------------|
E|---------------------------------------------------------------------------|


************************************

| /   slide up
| \   slide down
| h   hammer-on
| p   pull-off
| ~   vibrato
| +   harmonic
| x   Mute note
| b   Bend
| pb  Pre-bend
| br  Bend release
| pbr Pre-bend release
| brb Bend release bend

************************************

            
            
Suggest correction
Creating personal tab
Creating personal tab
You can edit any tab online and save it as your Personal.

You can edit, replace or remove any tab part or add personal notes – all changes will be seen only by you.

Personal tabs can be accessed anytime from any device, even offline.
Learn more »
Give kudos to tab author, rate the tab!
1 2 3 4 5
comments
print report bad tab
guest
You may want to rate the tab now too:
select rating
Wanna post a correction for this tab? Suggest correction