Oops, an error
Loading. Please wait.

Spectrum Acoustic intro tab

by Zedd
706 views 6 this week
no commentswrite comment
1 2 3 4 5
2 more votes to show rating
add to favorites
×
Save as Personal and add changes to this tab that will be seen only by you. Learn more ›
×
You can save this tab as Personal to edit and correct it or add notes. All changes will be seen only by you. Learn more »
launch autoscroll
font size
0
reset
how to read this tab
guitar tuner
edit
Autoscroll
slow
fast
+/-
esc
set tempo
stop
Zedd & Matthew Koma - Spectrum (Acoustic live version)
Tuning: D G C F A D
Arranged key: F major (F G A Bb C D E F) which is now Eb major (Eb F G Ab Bb C D Eb) when tuned down
Original key: F# major (F# G# A# B C# D# E# F#) played with a capo on the third fret
Tempo: 60/120 bpm (average)
Link to this live version: https://www.youtube.com/watch?v=bc0UhWmmq3E
Transcribed by Robert from Astlessons

So to explain the key and capo combination further, he tunes down his guitar a whole step, and then puts 
a capo on the third fret, probably to get higher up the neck to make the chords and melody easier to play; 
but you can also just stay in standard tuning and instead put a capo on the first fret


[Intro]:

  Fsus2                   Gsus4     Am7                     C
|---------------------------------|---------------------------------|
|-------1-------1-------1-------1-|-------1-------1-------1-------1-|
|-----------0-------0---------0---|-----------0-------0-------0-----|
|---------------------3-----------|-------------2-------2-------2---|
|---------------------------------|-0-----------------------3-------|
|-1-----------------------3-------|---------------------------------|

  Dm              Fsus2   G         Asus4           C       Dadd24
|-------1-------0-----------------|---------------------------------|
|-----------3-----------1-------0-|---3---2-------1-------1-/----\1-|
|-------------2-----0-------------|-----2-----2-------0-------0-----|
|-0-------------------3-----------|-------------0-------2---/---4---|
|---------------------------------|-0---------------3-------/-------|
|-------------------------3-------|---------------------------------|


[Interlude] (1:25-1.41):

  Fsus2                   Gsus4     Am7                     C
|-3-------0-----3---3---0---0-----|-3---3-0---0---3---3---0---------|
|-----------1-----------------3-1-|-------1-----------1-------1-----|
|---0---0-----0---0---0-----------|---------------------0-------0---|
|-----0---------------------------|-------------2-----------------2-|
|---------------------------------|-0-----------------------3-------|
|-1-----------------------3-------|---------------------------------|

  Dm            Fmaj7     G         Am7           C       Dadd24
|-------1-------------------------|---------5/7-0-0---0-------------|
|---3---------5---------6-5-------|-------------------1---3-----3\1-|
|-----2---4/5---------5-------4---|---------------------------------|
|-0-------------3---5-----------5-|-----------------2-----4---4-----|
|---------------------------------|-0-------------3-------5---------|
|-------------------------3-------|---------------------------------|



If you like this transcription, feel free to check out my YouTube channel where I post tutorials:
https://www.youtube.com/astlessons



//Robert
Suggest correction
Creating personal tab
Creating personal tab
You can edit any tab online and save it as your Personal.

You can edit, replace or remove any tab part or add personal notes – all changes will be seen only by you.

Personal tabs can be accessed anytime from any device, even offline.
Learn more »
Give kudos to tab author, rate the tab!
1 2 3 4 5
comments
print report bad tab
guest
You may want to rate the tab now too:
select rating
Wanna post a correction for this tab? Suggest correction