Oops, an error
Loading. Please wait.

Devils Island tab

by Zeke
40 views 1 this week
no commentswrite comment
1 2 3 4 5
3 more votes to show rating
add to favorites
×
Save as Personal and add changes to this tab that will be seen only by you. Learn more ›
×
You can save this tab as Personal to edit and correct it or add notes. All changes will be seen only by you. Learn more »
launch autoscroll
font size
0
reset
how to read this tab
guitar tuner
edit
Autoscroll
slow
fast
+/-
esc
set tempo
stop
About this tab version
Zeke - devils island from the album 'til the livin' end tablature. Was this info helpful? Yes No
Devils Island 



zeke



album: 'til the livin' end



transcribed by Rudy Guzman



guzman_84@hotmail.com



tune 2 steps down
       
 
                                x3
Eb|----0---0---------0------0-----|
Bb|--------------------6~~~-5h6p5-|
F#|--5---7---5h7p5-5--------------|
C#|--7---7---7-----7--------------|
G#|--0---0---0-----0--------------|
C#|-------------------------------|


Eb|------|
Bb|------|
F#|------|
C#|------|
G#|-10/7-|
C#|-8-/5-|

   all the way to the top to where the next step stops shadow sick out of town into the 
Eb|-----------|
Bb|-----------|
F#|-----------|
C#|-----------|
G#|--10-10--7-|
C#|--8--8---5-|

   very depth of darkness
pick slide
Eb|------------------------------|
Bb|------------------------------|
F#|------------------------------|
C#|------------------------------|
G#|-x/---------------------------|
C#|-x/---------------------------|

Eb|-------------------------|
Bb|-------------------------|
F#|-------------------------|
C#|-10-10-------------------|
G#|-8--8---10-10--7-7-7-7-7-|
C#|--------8--8---5-5-5-5-5-|

    on the devils island
Eb|-------------------------|
Bb|-------------------------|
F#|-------------------------|
C#|-10-10-------------------|
G#|-8--8---10-10--7-7-7-7-7-|
C#|--------8--8---5-5-5-5-5-|

   yeah im on the devil island
Eb|-------------------------------------|
Bb|-------------------------------------|
F#|-------------------------------------|
C#|-10-10-10-10-10-10-10--9-9-9-9-9-9-9-|
G#|-8--8--8--8--8--8--8---7-7-7-7-7-7-7-|
C#|-------------------------------------|

                           x3
Eb|----0---0---------0------0-----|
Bb|--------------------6~~~-5h6p5-|
F#|--5---7---5h7p5-5--------------|
C#|--7---7---7-----7--------------|
G#|--0---0---0-----0--------------|
C#|-------------------------------|


Eb|------|
Bb|------|
F#|------|
C#|------|
G#|-10/7-|
C#|-8-/5-|

   ship the fools on the edge now they have all gone insane they were fired you`ll get burn
   into the
Eb|-----------|
Bb|-----------|
F#|-----------|
C#|-----------|
G#|--10-10--7-|
C#|--8--8---5-|

   very depth of darkness
pick slide
Eb|------------------------------|
Bb|------------------------------|
F#|------------------------------|
C#|------------------------------|
G#|-x/---------------------------|
C#|-x/---------------------------|

Eb|-------------------------|
Bb|-------------------------|
F#|-------------------------|
C#|-10-10-------------------|
G#|-8--8---10-10--7-7-7-7-7-|
C#|--------8--8---5-5-5-5-5-|

    on the devils island
Eb|-------------------------|
Bb|-------------------------|
F#|-------------------------|
C#|-10-10-------------------|
G#|-8--8---10-10--7-7-7-7-7-|
C#|--------8--8---5-5-5-5-5-|

   yeah im on the devil island
Eb|-------------------------------------|
Bb|-------------------------------------|
F#|-------------------------------------|
C#|-10-10-10-10-10-10-10--9-9-9-9-9-9-9-|
G#|-8--8--8--8--8--8--8---7-7-7-7-7-7-7-|
C#|-------------------------------------|

                           x2
Eb|----0---0---------0------0-----|
Bb|--------------------6~~~-5h6p5-|
F#|--5---7---5h7p5-5--------------|
C#|--7---7---7-----7--------------|
G#|--0---0---0-----0--------------|
C#|-------------------------------|

Eb|-------------------------------|
Bb|----5---5---------5-6~~~-5h6p5-|
F#|--5---7---5h7p5-5-5------------|
C#|--7---7---7-----7--------------|
G#|--5---5---5-----5--------------|
C#|-------------------------------|

Eb|-------------------------------|
Bb|----5---5---------5-6~~~-5h6p5-|
F#|--5---7---5h7p5-5-5------------|
C#|--7---7---7-----7--------------|
G#|--7---7---7-----7--------------|
C#|-------------------------------|

solo
Eb|-----------------------------------------12--15-12h14p12--------------------------------------|
Bb|--------------------------------------15-----------------15-12h14p12--------------------------|
F#|-/14-14-14-14-14-14-14-14-14-14~~~~-----------------------------------15-12h14p12-------------|
C#|----------------------------------------------------------------------------------14-12h14p12-|
G#|----------------------------------------------------------------------------------------------|
C#|----------------------------------------------------------------------------------------------|

Eb|--------------------------------------------------------------|
Bb|--------------------------------------------------------------|
F#|-------------------------------------------14-12--------------|
C#|----------------------------12-14b~~~~--12-------14p12-14~~~~-|
G#|-14-12h14p12----------12-14-----------------------------------|
C#|-------------15-12-15-----------------------------------------|

Eb|----------17-19-18-17h18p17---------------------------------------------|
Bb|--20b-20b-------------------20-17-19-17---------------------------------|
F#|----------------------------------------20-17-19-17----17-19-17-19-19bf-|
C#|----------------------------------------------------19------------------|
G#|------------------------------------------------------------------------|
C#|------------------------------------------------------------------------|


   all the way to the top to where the next step stops ship for fools on the edge into the 
Eb|-----------|
Bb|-----------|
F#|-----------|
C#|-----------|
G#|--10-10--7-|
C#|--8--8---5-|

   very depth pof darkness
pick slide
Eb|------------------------------|
Bb|------------------------------|
F#|------------------------------|
C#|------------------------------|
G#|-x/---------------------------|
C#|-x/---------------------------|

Eb|-------------------------|
Bb|-------------------------|
F#|-------------------------|
C#|-10-10-------------------|
G#|-8--8---10-10--7-7-7-7-7-|
C#|--------8--8---5-5-5-5-5-|

    on the devils island
Eb|-------------------------|
Bb|-------------------------|
F#|-------------------------|
C#|-10-10-------------------|
G#|-8--8---10-10--7-7-7-7-7-|
C#|--------8--8---5-5-5-5-5-|

   yeah im on the devil island
Eb|-------------------------------------|
Bb|-------------------------------------|
F#|-------------------------------------|
C#|-10-10-10-10-10-10-10--9-9-9-9-9-9-9-|
G#|-8--8--8--8--8--8--8---7-7-7-7-7-7-7-|
C#|-------------------------------------|

   on the devils island    x3
Eb|--------------------------|
Bb|--------------------------|
F#|--------------------------|
C#|--------------------------|
G#|-3-3---5-5---7--7-7-7-7-7-|
C#|-1-1---3-3---5--5-5-5-5-5-|

Eb|-------------------|
Bb|-------------------|
F#|-------------------|
C#|-------------------|
G#|-3-3-3--5-5-5--7---|
C#|-1-1-1--3-3-3--5---|




hillo son mex

originally tabbed in 2005

20/02/17
        

            
            
Suggest correction
Creating personal tab
Creating personal tab
You can edit any tab online and save it as your Personal.

You can edit, replace or remove any tab part or add personal notes – all changes will be seen only by you.

Personal tabs can be accessed anytime from any device, even offline.
Learn more »
Give kudos to tab author, rate the tab!
1 2 3 4 5
comments
print report bad tab
guest
You may want to rate the tab now too:
select rating
Wanna post a correction for this tab? Suggest correction