Oops, an error
Loading. Please wait.

Flat Track Live tab

version 1
version 1

Whole song

  • Zeke - flat track live version from the album live and uncensored tablature.

Interactive

by Zeke
10 views 1 this week
no commentswrite comment
1 2 3 4 5
3 more votes to show rating
add to favorites
×
Save as Personal and add changes to this tab that will be seen only by you. Learn more ›
×
You can save this tab as Personal to edit and correct it or add notes. All changes will be seen only by you. Learn more »
launch autoscroll
font size
0
reset
how to read this tab
guitar tuner
edit
Autoscroll
slow
fast
+/-
esc
set tempo
stop
About this tab version
Zeke - flat track live version from the album live and uncensored tablature. Was this info helpful? Yes No
flat tracker (live)


zeke



album: live and uncensored



TRANSCRIBED BY RUDY GUZMAN


guzman_84@hotmail.com



1 step down



   gt1                       x2
eb:----5-5-5----5-5-5----5-5-5-|
Bb:----5-5-5----5-5-5----5-5-5-|
Gb:-7b-------7b-------7b-------|
Db:----------------------------|
Ab:----------------------------|
Eb:----------------------------|
   gt2             x3
eb:------------------|
Bb:------------------|
Gb:----------7-7-7-7-|
Db:-7-7-7--5-7-7-7-7-|
Ab:-7-7-7--5-5-5-5-5-|
Eb:-5-5-5------------|


eb:--------------------|
Bb:--------------------|
Gb:-5-5--6--7----------|
Db:-5-5--6--7--5-5-5-5-|
Ab:-3-3--4--5--5-5-5-5-|
Eb:------------3-3-3-3-|

   when i was a little boy they took me to a race...
eb:--------------|
Bb:--------------|
Gb:--------------|
Db:-7--7---5-7---|
Ab:-7--7---5-7---|
Eb:-5--5---3-5---|

it changed my life it blew my mind
:-----------------|
:-----------------|
:-----------------|
:-7-7-7-7-7-7-7-7-|
:-7-7-7-7-7-7-7-7-|
:-5-5-5-5-5-5-5-5-|

   and didnt quit with race
eb:--------------------|
Bb:--------------------|
Gb:-5-5--6--7----------|
Db:-5-5--6--7--5-5-5-5-|
Ab:-3-3--4--5--5-5-5-5-|
Eb:------------3-3-3-3-|

  flat track is in me, flat track i make believe, flat track its what i need
eb:------------------|
Bb:------------------|
Gb:----------7-7-7-7-|
Db:-7-7-7--5-7-7-7-7-|
Ab:-7-7-7--5-5-5-5-5-|
Eb:-5-5-5------------|

   flat track flat track
eb:--------------------|
Bb:--------------------|
Gb:-5-5--6--7----------|
Db:-5-5--6--7--5-5-5-5-|
Ab:-3-3--4--5--5-5-5-5-|
Eb:------------3-3-3-3-|

   everything....
eb:--------------|
Bb:--------------|
Gb:--------------|
Db:-7--7---5-7---|
Ab:-7--7---5-7---|
Eb:-5--5---3-5---|

:-----------------|
:-----------------|
:-----------------|
:-7-7-7-7-7-7-7-7-|
:-7-7-7-7-7-7-7-7-|
:-5-5-5-5-5-5-5-5-|

   this is fucking said
eb:--------------------|
Bb:--------------------|
Gb:-5-5--6--7----------|
Db:-5-5--6--7--5-5-5-5-|
Ab:-3-3--4--5--5-5-5-5-|
Eb:------------3-3-3-3-|

   flat track is in me, flat track i make believe, flat track its what i need
eb:------------------|
Bb:------------------|
Gb:----------7-7-7-7-|
Db:-7-7-7--5-7-7-7-7-|
Ab:-7-7-7--5-5-5-5-5-|
Eb:-5-5-5------------|

   flat track flat track
eb:--------------------|
Bb:--------------------|
Gb:-5-5--6--7----------|
Db:-5-5--6--7--5-5-5-5-|
Ab:-3-3--4--5--5-5-5-5-|
Eb:------------3-3-3-3-|

   flat track is in me, flat track i make believe, flat track its what i need
eb:------------------|
Bb:------------------|
Gb:----------7-7-7-7-|
Db:-7-7-7--5-7-7-7-7-|
Ab:-7-7-7--5-5-5-5-5-|
Eb:-5-5-5------------|

   flat track flat track
eb:--------------------|
Bb:--------------------|
Gb:-5-5--6--7----------|
Db:-5-5--6--7--5-5-5-5-|
Ab:-3-3--4--5--5-5-5-5-|
Eb:------------3-3-3-3-|

solo
eb:-12-12-12-12-12-12-12-12--9-10-11-|
Bb:-12-12-12-12-12-12-12-12--9-10-11-|
Gb:----------------------------------|
Db:----------------------------------|
Ab:----------------------------------|
Eb:----------------------------------|

eb:------------------------|
Bb:-14b----14--14b----14---|
Gb:-14b-12-14--14b-12-14---|
Db:------------------------|
Ab:------------------------|
Eb:------------------------|

:-------------------------------|
:-17-17-17-16-16-16-15-15-15-13-|
:-16-16-16-15-15-15-14-14-14-12-|
:-------------------------------|
:-------------------------------|
:-------------------------------|

eb:---------------------------|
Bb:-13-13-13-13-13--12-11-10--|
Gb:-12-12-12-12-12--11-10-9---|
Db:---------------------------|
Ab:---------------------------|
Eb:---------------------------|

   wanted to...
eb:--------------|
Bb:--------------|
Gb:--------------|
Db:-7--7---5-7---|
Ab:-7--7---5-7---|
Eb:-5--5---3-5---|

:-----------------|
:-----------------|
:-----------------|
:-7-7-7-7-7-7-7-7-|
:-7-7-7-7-7-7-7-7-|
:-5-5-5-5-5-5-5-5-|

   
eb:--------------------|
Bb:--------------------|
Gb:-5-5--6--7----------|
Db:-5-5--6--7--5-5-5-5-|
Ab:-3-3--4--5--5-5-5-5-|
Eb:------------3-3-3-3-|

   flat track is in me, flat track i make believe, flat track its what i need
eb:------------------|
Bb:------------------|
Gb:----------7-7-7-7-|
Db:-7-7-7--5-7-7-7-7-|
Ab:-7-7-7--5-5-5-5-5-|
Eb:-5-5-5------------|

   flat track flat track
eb:--------------------|
Bb:--------------------|
Gb:-5-5--6--7----------|
Db:-5-5--6--7--5-5-5-5-|
Ab:-3-3--4--5--5-5-5-5-|
Eb:------------3-3-3-3-|

   flat track i make believe, flat track is in me, flat track its what i need
eb:------------------|
Bb:------------------|
Gb:----------7-7-7-7-|
Db:-7-7-7--5-7-7-7-7-|
Ab:-7-7-7--5-5-5-5-5-|
Eb:-5-5-5------------|

   yeah i got flat track
eb:----------------|
Bb:----------------|
Gb:----------------|
Db:-7--5-7---5-7---|
Ab:-7--5-7---5-7---|
Eb:-5--3-5---3-5---|

    thats right                           fdbk
eb:------------------------------------------|
Bb:------------------------------------------|
Gb:-2--2-2-2-2-2-2-2-2-2-2-2-2-2-2-2-2-2-2-2-|
Db:-2--2-2-2-2-2-2-2-2-2-2-2-2-2-2-2-2-2-2-2-|
Ab:-0--0-0-0-0-0-0-0-0-0-0-0-0-0-0-0-0-0-0-0-|
Eb:------------------------------------------|

eb:-----------|
Bb:-----------|
Gb:--2--------|  
Db:--2--------|
Ab:--0--------|
Eb:-----------|

            
            
Suggest correction
Creating personal tab
Creating personal tab
You can edit any tab online and save it as your Personal.

You can edit, replace or remove any tab part or add personal notes – all changes will be seen only by you.

Personal tabs can be accessed anytime from any device, even offline.
Learn more »
Give kudos to tab author, rate the tab!
1 2 3 4 5
comments
print report bad tab
guest
You may want to rate the tab now too:
select rating
Wanna post a correction for this tab? Suggest correction