Oops, an error
Loading. Please wait.

Zeldas Lullaby Tab

19,987 views 144 this week
5 commentsread comments
1 2 3 4 5
x 38
add to favorites
launch autoscroll
font size
0
reset
how to read this tab
guitar tuner
Autoscroll
slow
fast
+/-
esc
set tempo
stop
Help us to improve Ultimate-Guitar.com Take our survey!
×
Author
Difficulty
This is my first tab - it sounds pretty good to me ! Hope it helps ! It's not too complicated at all 
I hope it's right!

e |--------------------------------------5----3----|
B |--0----3--------0----3-------0---3-------------3|
G |-----------2-------------2----------------------|
D |------------------------------------------------|
A |------------------------------------------------|
E |------------------------------------------------|
Suggest correction
comments
print report bad tab
5 comments total. Showing first comments.
0 reply
skollthedarknig 10 Jul 22, 2014 01:33 PM, edited at 01:35 pm

It's great for a first tab! But it'll be more like this |---------------------------------------------5----3-------------|B |--0----3-----------------0----3-------0--3-----------3---1-0----|G |-----------2---0--2---------------2--------------------------2--|D |----------------------------------------------------------------|A |----------------------------------------------------------------|E |----------------------------------------------------------------|Have a good day!

0 reply
skollthedarknig 10 Jul 22, 2014 01:37 PM

I failed ._. So hm..
I said :

It's great for a first tab! but.. it'll be more like this

e |---------------------------------------------5----3-------------|
B |--0----3-----------------0----3-------0--3-----------3---1-0----|
G |-----------2---0--2---------------2--------------------------2--|
D |----------------------------------------------------------------|
A |----------------------------------------------------------------|
E |----------------------------------------------------------------|

Have a good day!

0 reply
addictivepizz 10 Dec 20, 2014 12:01 PM, edited at 12:02 pm

Try this out it has a little more soft spoken melody to it. Sounds better the higher you go. e|--------10----------------------10-------------17----15----------------|B |--12-----10----8----10---12-------10---12----15-------15-13-12-10----8-|(2x)^G |-----------------------------------------------------------------------|D |-----------------------------------------------------------------------|A |-----------------------------------------------------------------------|E |-----------------------------------------------------------------------|

guest
You may want to rate the tab now too:
select rating
Wanna post a correction for this tab? Suggest correction