Oops, an error
Loading. Please wait.

Peace Chords

9 views 1 this week
no commentswrite comment
1 2 3 4 5
please rate
add to favorites
launch autoscroll
font size
0
reset
transpose
0
reset
simplify chords
display chords
guitar tuner
Autoscroll
slow
fast
+/-
esc
set tempo
stop
Help us to improve Ultimate-Guitar.com Take our survey!
×
Verse 1:

CM7                    Dm7                         
I have words to say to you my friend 

      CM7                             Dm7
Is it hard to know what's right from wrong 

CM7                      Dm7
Have you ever felt your life so self assured 

           CM7                              Dm7
You don't know the things that you've done wrong..  And then we'll say 

Refrain:

Dm7                 G
We'll rip out our covers 

Dm7                         G
Shake the walls until they break 

Dm7               G
I'll hold out my hand to you 

Dm7                G
Supreme love and respect  Peace man 


Instrumental:

E|--------------------*---------------------------------------|
B|--------------------*---------------------------------------|
G|--4-5-7-4--------5--*--4-5-7-4-----------7-9-9h10-9-7p5-----|
D|----------5--2-3----*----------5-2-2h3----------------------|
A|--------------------*---------------------------------------|
E|--------------------*---------------------------------------|


E|--------------------------------------------|
B|-----6s8----8s10---8------------------------|
G|----------------------7-5-------------------|
D|---------------------------3s5-3------------|  
A|---------------------------------5--3-------|
E|--------------------------------------------|


    CM7                Dm7   
At first it seems so daunting 

CM7              Dm7 
How to start or how to grow 

CM7                         Dm7
But make believe becomes a living 

CM7                           Dm7
Coz in life, in life you will know, and then we'll say

Refrain:

Dm7                 G
We'll rip out our covers 

Dm7                         G
Shake the walls until they break 

Dm7               G
I'll hold out my hand to you 

Dm7                G
Supreme love and respect  Peace man 
Suggest correction
Give kudos to tab author, rate the tab!
1 2 3 4 5
comments
print report bad tab
guest
You may want to rate the tab now too:
select rating
Please do not post tabs as comments. Select "correction" instead!