Oops, an error
Loading. Please wait.

Show Me Chords

26 views 1 this week
no commentswrite comment
1 2 3 4 5
please rate
add to favorites
launch autoscroll
font size
0
reset
transpose
0
reset
simplify chords
display chords
guitar tuner
Tab Pro tools
  • play this tab
  • loop segment
  • change instrument
  • show fretboard
  • metronome
×
Best way to learn
"Show Me"
Autoscroll
slow
fast
+/-
esc
set tempo
stop
Contributor
ERSE-

Am          F        Am                F
Fearless people, careless needle
Am          F        Em                F
Harsh words spoken, and lives are broken
Am          F        Am                F
Forceful ageing, help me I’m fading
Am          F        Em                F
Heaven’s waiting, it’s time to move on

CHORUS
Guitar-
e |-------------------------------------------------|
b |-------------------------------------------------|
g |-------------------------------------------------|
D|------------------------5-3-2---------------------|
A|--------6-5-----3-3----------3-1------------------|
E|-4-3-6-------6------------------------------------|

e |---------------------------------------------------------------|
b |---------------------------------------------------------------|
g |---------------------------------------------------------------|
D|----------------------5-3-2-3-2---------------------------------|
A|--7-3—6666666~-------------3-1—3---666666-----------------------|
E|--5-1—4444444~--------------------1---444444--------------------|


G#5              C5
Crossing that bridge, with lessons
Bb5
I’ve learned
                A5
Playing with fire, and not getting

F#5-G#5
burned
          C5                 Bb5
I may not know what you’re going through
               Bb5                  G#5
But time is the space between me and you
A5
Life carries on

bass
e |-------------------------|
b |-------------------------|
g |-------------------------|
D|-----------5h2------------|
A|--------3-----------------|
E|----3h5-------------------|


DO VERSE
Just say die, and that would be pessimistic
In your mind, we can walk across water
Please don’t cry, it’s just a prayer for the dying
I just don’t know what’s got into me

D0 CHORUS
Guitar-
e |-------------------------------------------------|
b |-------------------------------------------------|
g |-------------------------------------------------|
D|------------------------5-3-2---------------------|
A|--------6-5-----3-3----------3-1------------------|
E|-4-3-6-------6------------------------------------|

e |---------------------------------------------------------------|
b |---------------------------------------------------------------|
g |---------------------------------------------------------------|
D|----------------------5-3-2-3-2---------------------------------|
A|--7-3—6666666~-------------------3-1—3~---666666----------------|
E|--5-1—4444444~-----------------------1~---444444----------------|

e |---------------------------------------------|
b |---------------------------------------------|
g |---------------------------------------------|
D|---5-3-2-3-2----------------------------------|
A|---------------3-1—3~---666666----------------|
E|-------------------1~---444444----------------|

Been crossin’ that bridge, with lessons I’ve learned
Playing with fire, and not getting burned
I may not know what you’re going through
But time is the space between me and you

          C5                 Bb5
There is a light through that window
Bb5                  G#5
Hold on say yes, while people say no
A5
Life carries on
comments
We did not receive enough feedback on this tab! Please rate:
print report bad tab
1 2 3 4 5
I want to post or [tab]
guest
You may want to rate the tab now too:
select rating
Please do not post tabs as comments. Select "correction" instead!