Oops, an error
Loading. Please wait.

Desaparecer tab

version 2
version 2

Whole song

by Zen
294 views 3 this week
no commentswrite comment
1 2 3 4 5
3 more votes to show rating
add to favorites
×
Save as Personal and add changes to this tab that will be seen only by you. Learn more ›
×
You can save this tab as Personal to edit and correct it or add notes. All changes will be seen only by you. Learn more »
launch autoscroll
font size
0
reset
how to read this tab
guitar tuner
edit
Autoscroll
slow
fast
+/-
esc
set tempo
stop
Esta canción es wenaza, una de las mejores. Aqui les dejo el tab 
para que lo disfruten :D La saque cuando taba apunto de 
dormirme :P saludos para gente de mi cole ( san agustin xD )

Banda : Zen     Canción : Desparecer     País : Perú

Intro:

E|------|     
B|------|     
G|------|     
D|-4~---|     
A|-2~---|     
E|------|     

E|-----7--------7---------------------------------------------------|
B|------------------------------------------------------------------|
G|--6~-------6~---------/6--6--7--6--6--4~-------6--6--7--6--6--4~--| X2
D|------------------------------------------------------------------|
A|------------------------------------------------------------------|
E|------------------------------------------------------------------|


La parte de fondo cuando empieza a cantar es facil pero no la he podido sacar :S


Nunca se dió, 
la oportunidad
de decirte adios
solo escuché
el eco de un grito animal
en mi interior..

Pre-Coro
Ya no sabrás de mi..

E|--------------|     
B|--------------|    
G|--------------|     
D|--4~----------|    X2
A|--2~----5~----|
E|--------3~----|

Coro

Desaparecer, sin dejar....
E|------------------------------------|
B|------------------------------------|
G|---------2222222--------------------|
D|-4444444-2222222-5555555-7777777----|
A|-2222222---------5555555-7777777----|
E|-----------------3333333-5555555----|


Despues se vuelve a repetir otra vez todo
Acabando el coro de la segunda vuelta sigue

                        ..ante el amanecer
E|----------------------------------------|
B|----------------------------------------|
G|----------------------------------------|
D|--55-5~---------------------------------|
A|--55-5~------------222-444-555/777------|
E|--33------------------------------------|


Bridge

E|-----------------|
B|-----------------|
G|-----------------|
D|-----------------| 12X
A|-2222220h20h2----|
E|-----------------|


Solo
Un toque dificil :P


Coro de nuevo

Desaparecer, sin dejar....
E|------------------------------------|
B|------------------------------------|
G|---------2222222--------------------|
D|-4444444-2222222-5555555-7777777----|
A|-2222222---------5555555-7777777----|
E|-----------------3333333-5555555----|


Terminando el coro

E|-------------------------------------------|
B|-------------------------------------------|
G|-------------------------------------------| 2x
D|-44444444-666666666-777777777/999999999----|
A|-22222222-444444444-555555555/777777777----|
E|-------------------------------------------|

Al final de la cancion

E|------|     
B|------|        
G|------|       
D|-4~---|        
A|-2~---|        
E|------| 

Espero q les halla gustado, si tiene errores no me piteen :P
Dejen de escuchar mierda gringa y APOYEN AL ROCK PERUANO! :)

            
            
Suggest correction
Creating personal tab
Creating personal tab
You can edit any tab online and save it as your Personal.

You can edit, replace or remove any tab part or add personal notes – all changes will be seen only by you.

Personal tabs can be accessed anytime from any device, even offline.
Learn more »
Give kudos to tab author, rate the tab!
1 2 3 4 5
comments
print report bad tab
guest
Wanna post a correction for this tab? Suggest correction