Oops, an error
Loading. Please wait.

Guardas Algo tab

version 1
version 1

Whole song

by Zen
78 views 1 this week
no commentswrite comment
1 2 3 4 5
3 more votes to show rating
add to favorites
×
Save as Personal and add changes to this tab that will be seen only by you. Learn more ›
×
You can save this tab as Personal to edit and correct it or add notes. All changes will be seen only by you. Learn more »
launch autoscroll
font size
0
reset
how to read this tab
guitar tuner
edit
Autoscroll
slow
fast
+/-
esc
set tempo
stop
Hola a todos, aki les va una súper canción , de unos de los
mejores grupos de Perú, (Zen), la cual se la dedico
a la niña de mis ojos mas conocida como la puneñita...
y recuerden ?la vida es mejor si das amor sin medida?


Intro:
e|---8--7---7-----7---5---5-|---8--7---7-----7---5---5--
B|--------------------------|---------------------------
G|-5--5---5-----5--5---5----|-5--5---5-----5--5----5----
D|--------------------------|---------------------------
A|--------------------------|---------------------------
E|--------------------------|---------------------------

C
Ya no puedo leer tus ojos
Am
No logro encontrarte en ellas
        F
Se que tú?. guardas algo
        F             G           C
Se que tú?. tienes algo?    para mí


e|---8--7---7-----7---5---5-|---8--7---7-----7---5---5--
B|--------------------------|---------------------------
G|-5--5---5-----5--5---5----|-5--5---5-----5--5----5----
D|--------------------------|---------------------------
A|--------------------------|---------------------------
E|--------------------------|---------------------------

e|---5----------------------------|---5-----------------------
B|--------8---8---8---6---6-------|--------8---8---8---6---6--
G|-5---5----5---5---5---5---------|-5---5----5---5---5---5----
D|--------------------------------|---------------------------
A|--------------------------------|---------------------------
E|--------------------------------|---------------------------


C
Tu silencio me hiere tanto
Am
Esta angustia me esta acabando
        F
Se que tú?. guardas algo
        F             G
Se que tú?. tienes algo

       C
Dime quien me alejo de ti
       Am
Dime quien se burlo de mí
       F
Dime quien me ha robado todo
       F                  G          C
Dime quien se ha llevado todo... de mí

e|---8--7---7-----7---5---5-|
B|--------------------------|
G|-5--5---5-----5--5---5----|
D|--------------------------|
A|--------------------------|
E|--------------------------|


C
Ya no quiero buscar respuestas
Am
Ya no puedo vivir soñando
        F
Se que ya? no hay nada
        F               G        C
Se que ya?. no queda nada? para mi


*Solo* + notas para acompañar el solo (C - Am - F - G)

E|-----------------------------------
B|--<17>17-15-17--<17>17-15-13-------
G|-----------------------------------
D|-----------------------------------
A|-----------------------------------
E|-----------------------------------

---------------------------------------------------------------------
--<15>15-15-15/17-18-15/17-15---13-15-<15-15>-13-15------------------
---------------------------------------------------------------------
-----------------------------------------------------------<<<9>>>---
---------------------------------------------------------------------
---------------------------------------------------------------------


      C
Dime quien me alejo de ti
       Am
Dime quien se burlo de mí
       F
Dime quien me ha robado todo
       F                  G
Dime quien se ha llevado todo?


       C
Dime quien me alejo de ti
       Am
Dime quien se burlo de mí
       F
Dime quien me ha robado todo
       F                  G        C
Dime quien se ha llevado todo? de mí?


¡Viva el rock peruano!... y tu mamá también!!  = P
Cualquier sugerencia escríbanme a: edu_007_178@
Saludos para la people  de huascaran.. y para la julio la jorge ,
 la Giovanni y la guiseppe ¡ valor !  jaja X P

            
            
Suggest correction
Creating personal tab
Creating personal tab
You can edit any tab online and save it as your Personal.

You can edit, replace or remove any tab part or add personal notes – all changes will be seen only by you.

Personal tabs can be accessed anytime from any device, even offline.
Learn more »
Give kudos to tab author, rate the tab!
1 2 3 4 5
comments
print report bad tab
guest
Wanna post a correction for this tab? Suggest correction