Oops, an error
Loading. Please wait.

Guardas Algo tab

version 2
version 2

Whole song

by Zen
30 views 1 this week
no commentswrite comment
1 2 3 4 5
3 more votes to show rating
add to favorites
×
Save as Personal and add changes to this tab that will be seen only by you. Learn more ›
×
You can save this tab as Personal to edit and correct it or add notes. All changes will be seen only by you. Learn more »
launch autoscroll
font size
0
reset
how to read this tab
guitar tuner
edit
Autoscroll
slow
fast
+/-
esc
set tempo
stop
hola esta es mi primera modificación es breve solo son un par
de notas creo que suena mejor espero que les guste
marco(marcoantonio20003@


Intro:
e|---8--7---7-----7---5---5-|---8--7---7-----7---5---5--
B|--------------------------|---------------------------
G|-5--5---5-----5--5---5----|-5--5---5-----5--5----5----
D|--------------------------|---------------------------
A|--------------------------|---------------------------
E|--------------------------|---------------------------

C
Ya no puedo leer tus ojos
Am
No logro encontrarte en ellas
        F
Se que tú?. guardas algo
        Dm            G           C
Se que tú?. tienes algo?    para mí


e|---8--7---7-----7---5---5-|---8--7---7-----7---5---5--
B|--------------------------|---------------------------
G|-5--5---5-----5--5---5----|-5--5---5-----5--5----5----
D|--------------------------|---------------------------
A|--------------------------|---------------------------
E|--------------------------|---------------------------

e|--------------------------------|---------------------------
B|---8----6---6---6---5---5-------|---8----6---6---6---5---5--
G|-5---5----5---5---5---5---------|-5---5----5---5---5---5----
D|--------------------------------|---------------------------
A|--------------------------------|---------------------------
E|--------------------------------|---------------------------


C
Tu silencio me hiere tanto
Am
Esta angustia me esta acabando
        F
Se que tú?. guardas algo
        Dm            G
Se que tú?. tienes algo

       C
Dime quien me alejo de ti
       Am
Dime quien se burlo de mí
       F
Dime quien me ha robado todo
       Dm                 G          C
Dime quien se ha llevado todo... de mí

e|---8--7---7-----7---5---5-|
B|--------------------------|
G|-5--5---5-----5--5---5----|
D|--------------------------|
A|--------------------------|
E|--------------------------|


C
Ya no quiero buscar respuestas
Am
Ya no puedo vivir soñando
        F
Se que ya? no hay nada
        Dm               G        C
Se que ya?. no queda nada? para mi


*Solo* + notas para acompañar el solo (C - Am - F - G)

E|-----------------------------------
B|--<17>17-15-17--<17>17-15-13-------
G|-----------------------------------
D|-----------------------------------
A|-----------------------------------
E|-----------------------------------

---------------------------------------------------------------------
--<15>15-15-15/17-18-15/17-15---13-15-<15-15>-13-15------------------
---------------------------------------------------------------------
-----------------------------------------------------------<<<9>>>---
---------------------------------------------------------------------
---------------------------------------------------------------------


      C
Dime quien me alejo de ti
       Am
Dime quien se burlo de mí
       F
Dime quien me ha robado todo
       Dm                 G
Dime quien se ha llevado todo?


       C
Dime quien me alejo de ti
       Am
Dime quien se burlo de mí
       F
Dime quien me ha robado todo
       Dm                 G        C
Dime quien se ha llevado todo? de mí?

            
            
Suggest correction
Creating personal tab
Creating personal tab
You can edit any tab online and save it as your Personal.

You can edit, replace or remove any tab part or add personal notes – all changes will be seen only by you.

Personal tabs can be accessed anytime from any device, even offline.
Learn more »
Give kudos to tab author, rate the tab!
1 2 3 4 5
comments
print report bad tab
guest
Wanna post a correction for this tab? Suggest correction