Oops, an error
Loading. Please wait.

Guardas Algo tab

version 3
version 3

Whole song

by Zen
80 views 1 this week
no commentswrite comment
1 2 3 4 5
3 more votes to show rating
add to favorites
×
Save as Personal and add changes to this tab that will be seen only by you. Learn more ›
×
You can save this tab as Personal to edit and correct it or add notes. All changes will be seen only by you. Learn more »
launch autoscroll
font size
0
reset
how to read this tab
guitar tuner
edit
Autoscroll
slow
fast
+/-
esc
set tempo
stop
aki les va lo mejor de zen .................
espero k les guste ps lo hice con mucha dedicacion especialmente
para mi galletona....SF te kiero muxoooooooooooooooooo

ACORDES:

DO5  RaRo(R)  FA5   SOL5
0     0        0     0
0     0        0     0
5     4        0     0
5     2        3     5
3     2        3     5
0     0        1     3

intro:

e-----8----7----7---7----5---5-----
B----------------------------------
G---5---5----5----5---5----5-------(*2)
D----------------------------------
A----------------------------------
E----------------------------------

DO
Ya no puedo leer tus ojos
LAm
No logro encontrarte en ellos
FA
Se que tu guardas algo
                  SOL
Se que tu tienes algo para mi

e|---8---7---7-----7--5---5---
B|----------------------------
G|-5---5---5--5--5--5---5---5-  (*2)
D|----------------------------
A|----------------------------
E|---------------------------

e|----------------------------
B|---8---6---6-----6---5--5---
G|-5---5---5--5--5---5--5---5-  (*2)
D|----------------------------
A|----------------------------
E|----------------------------

DO
Tu silencio me hiere tanto
LAm
Este angustioa me esta acabando
FA
Se que tu guardas algo
                           SOL
Se que tu tines algo para mi

Coro:

DO5
Dime quien me alejo de ti
R
Dime quien se burlo de mi
FA5
Dime quien me a robado todo
SOL5                            DO5
Dime quien se a llevado todo de mi

e|-----8----7----7---7----5---5-----
B|----------------------------------
G|---5---5----5----5---5----5-------(solo una vez)
D|----------------------------------
A|----------------------------------
E|----------------------------------

DO
Ya no quiero buscar respuestas
LAm
Ya no quiero vivir soñando
FA
Se que ya no hay nada
                   SOL
Se que ya no queda nada para mi

Solo:

E|-----------------------------------
B|--<17>17-15-17--<17>17-15-13-------
G|-----------------------------------
D|-----------------------------------
A|-----------------------------------
E|-----------------------------------

---------------------------------------------------------------------
--<15>15-15-15/17-18-15/17-15---13-15-<15-15>-13-15------------------
---------------------------------------------------------------------
-----------------------------------------------------------<<<9>>>---
---------------------------------------------------------------------
---------------------------------------------------------------------

Repetir coro 2 veces

bueno ps ojala k les aya gustado bueno alos otros les faltaba alguito
nomas pero
aki les mando too completo

alguna duda escribanme ami correo jheyck_7@
Suggest correction
Creating personal tab
Creating personal tab
You can edit any tab online and save it as your Personal.

You can edit, replace or remove any tab part or add personal notes – all changes will be seen only by you.

Personal tabs can be accessed anytime from any device, even offline.
Learn more »
Give kudos to tab author, rate the tab!
1 2 3 4 5
comments
print report bad tab
guest
Wanna post a correction for this tab? Suggest correction