Oops, an error
Loading. Please wait.

Hablarte Otra Vez bass

by Zen
83 views 1 this week
no commentswrite comment
1 2 3 4 5
3 more votes to show rating
add to favorites
×
Save as Personal and add changes to this tab that will be seen only by you. Learn more ›
×
You can save this tab as Personal to edit and correct it or add notes. All changes will be seen only by you. Learn more »
launch autoscroll
font size
0
reset
guitar tuner
edit
Autoscroll
slow
fast
+/-
esc
set tempo
stop
(El bajo entra luego del primer riff de guitarra)

Instrumental
G|x------------------------------------------------|
D|x------------------------------------------------|
A|x--555555555-----------222222222222--------------|
E|x-----------3333333333--------------5555555555---|

Estrofa : (tienes q escuchar bién así le das el tiempo necesario a la nota)

   Te descubri solo...
G|-----------------------------------------------|
D|--121212121212(doce)--------99999999999--------------------|
A|---------------101010101010(diez)-------121212121212(doce)-|
E|-----------------------------------------------|


PRE-CORO: (cambias de traste (o de nota) al acabar cada parrafo)

   Te borré de..//olvidé tu.. // salí de la...// y caminé de nuevo...
G|-----------------------------------------------|
D|--99999999999-11111111111111(once)-------------|
A|----------------------------10101010101010(diez)-121212121212(doce)|
E|-----------------------------------------------|


CORO:(Igual en esto)

   Quiero hablarte otra vez...//Verte defrente una vez más//
G|-------------------------------------------------------|
D|-------------------------------------------------------|
A|---555555555555555555555555----------------------------|
E|---------------------------- 3333333333333333333333333-|

   y decirte todo lo que escribo// ya no me hiere más
G|------------------------------------------------------|
D|------------------------------------------------------|
A|222222222222222222222222222222------------------------|
E|--------------------------------55555555555555555555--|


// REGRESAS A LAS NOTAS DE LA ESTROFA Y SUCESIVAMENTE //


PUENTE:

     Tú te arrepentirás// yo ya no estaré aquí//
G|--------------------------------------------------|
D|--------------------------------------------------|
A|--3333333333333333333--222222222222222222222------|
E|---------------------------------------------55555555555555555555555-|

ahora dónde irás sin mí...

G|-------------------|
D|-------------------|
A|------------22-----|
E|----55--33------33-|


Repites CORO (lo repites tantas veces lo escuches )


..y acaba en

G|--------------------------------------------------|
D|--------------------------------------------------|
A|------------22------------5...--------------------|
E|----55--33------33--5-3-5----------------------------|

            
            
Suggest correction
Creating personal tab
Creating personal tab
You can edit any tab online and save it as your Personal.

You can edit, replace or remove any tab part or add personal notes – all changes will be seen only by you.

Personal tabs can be accessed anytime from any device, even offline.
Learn more »
Give kudos to tab author, rate the tab!
1 2 3 4 5
comments
print report bad tab
guest
Wanna post a correction for this tab? Suggest correction