Oops, an error
Loading. Please wait.

Destiny Acoustic tab

version 3
version 3

Whole song

by Zero 7
499 views 3 this week
no commentswrite comment
1 2 3 4 5
1 last vote to show rating
add to favorites
×
Save as Personal and add changes to this tab that will be seen only by you. Learn more ›
×
You can save this tab as Personal to edit and correct it or add notes. All changes will be seen only by you. Learn more »
launch autoscroll
font size
0
reset
how to read this tab
guitar tuner
edit
Autoscroll
slow
fast
+/-
esc
set tempo
stop
[Intro]

e|-------|
B|-------|
G|-------|
D|-------|
A|--7\0--|
E|-------|

    Asus2                      Cmaj7
e|---------------------------------------------------|
B|----------0-------------------------0-----0-----0--|
G|------2-----2-----0-------------0-----0-----0------|
D|----2---2-----0h2---2p0-----0h2---2-----2-----2----|
A|--0-----------------------3------------------------|
E|---------------------------------------------------| (x3)

    F           Em          Cmaj7
e|---------------------------------------------------------------------|
B|------------------------------------0-----0-----0-----0-----0-----0--|
G|------2-----------0-------------0-----0-----0-----0-----0-----0------|
D|------3-3---------2-2p0-----0h2---2-----2-----2-----2-----2-----2----|
A|----3-----3-----2---------3------------------------------------------|
E|--1-----------0------------------------------------------------------|        


[Verse 1]

    Asus2                      Cmaj7
e|---------------------------------------------------|
B|----------0-------------------------0-----0-----0--|
G|------2-----2-----0-------------0-----0-----0------|
D|----2---2-----0h2---2p0-----0h2---2-----2-----2----|
A|--0-----------------------3------------------------|
E|---------------------------------------------------| (x3)
    I lie awake,            I've gone to ground
    I'm watching porn       In my hotel dressing gown
    Now I dream of you      But I still believe

    F                          Em               Cmaj7
e|----------------------------------------------------------------|
B|-------------------------------------------------------0-----0--|
G|------2--------------------------0------------------0----0------|
D|------3-3------------------------2-2p0----------0h2---2----2----|
A|----3-----3--------------------2--------------3-----------------|
E|--1--------------------------0----------------------------------|
    There's only enough for... In this lonely   Hotel suite
        
        
[Verse 2]

    Asus2                      Cmaj7
e|---------------------------------------------------|
B|----------0-------------------------0-----0-----0--|
G|------2-----2-----0-------------0-----0-----0------|
D|----2---2-----0h2---2p0-----0h2---2-----2-----2----|
A|--0-----------------------3------------------------|
E|---------------------------------------------------| (x3)
    The journey's long      And it feels so bad
    I'm thinking back to    The last day we had
    Old moon fades...       Soon I know I'll be...

    F            Em            Cmaj7
e|-----------------------------------------------|
B|--------------------------------------0-----0--|
G|------2------------0---------------0----0------|
D|------3-3----------2-2p0-------0h2---2----2----|
A|----3-----3------2-----------3-----------------|
E|--1------------0-------------------------------|
    I'm nearly with you        I'm nearly with you
        

[Chorus]
                                               A
e|------------------------------------------------------------|
B|--3----3-------3-----3-----3---3-----3-------2-----2-----2--|
G|----2----2-------2-------2-------2-----2-------2-------2----|
D|-----------------------0-----------------------------2------|
A|--3---3----3---2---2-----------1---1-----1---0---0----------|
E|------------------------------------------------------------| (x3)
    When I'm weak        I draw strength from you
    And when you're lost...   to change your mood
    And when I'm down you...  over me

e|-------------------------------------------|
B|--3----3------3-----3-----3-3-----3--------|
G|----2----2------2-------2-----2---2--------|
D|----------------------0--------------------|
A|--3---3----3--2---2---------1---1-1--------|
E|-------------------------------------------|
    Even though we're miles apart... destiny

        
[Verse 3]

    Asus2                      Cmaj7
e|---------------------------------------------------|
B|----------0-------------------------0-----0-----0--|
G|------2-----2-----0-------------0-----0-----0------|
D|----2---2-----0h2---2p0-----0h2---2-----2-----2----|
A|--0-----------------------3------------------------|
E|---------------------------------------------------| (x3)
    On a clear day          I'll fly home to you
    I'm bending time        Getting back to you
    Old moon fades...       Soon I know I'll be back with you

    F            Em            Cmaj7
e|-----------------------------------------------|
B|--------------------------------------0-----0--|
G|------2------------0---------------0----0------|
D|------3-3----------2-2p0-------0h2---2----2----|
A|----3-----3------2-----------3-----------------|
E|--1------------0-------------------------------|
    I'm nearly with you        I'm nearly with you 
   
  
[Chorus]
                                               A
e|------------------------------------------------------------|
B|--3----3-------3-----3-----3---3-----3-------2-----2-----2--|
G|----2----2-------2-------2-------2-----2-------2-------2----|
D|-----------------------0-----------------------------2------|
A|--3---3----3---2---2-----------1---1-----1---0---0----------|
E|------------------------------------------------------------| (x3)
    When I'm weak       I draw strength from you
    And when you're lost...  to change your mood
    And when I'm down you...  over me

e|-------------------------------------------|
B|--3----3------3-----3-----3-3-----3--------|
G|----2----2------2-------2-----2---2--------|
D|----------------------0--------------------|
A|--3---3----3--2---2---------1---1-1--------|
E|-------------------------------------------|
    Even though we're miles apart... destiny
  
  
[Outro]

e|---------------------------------------------------------|
B|--3----3------3-----3-----3-3-----3-------2-----2-----2--|
G|----2----2------2-------2-----2-----2-------2-------2----|
D|----------------------0---------------------------2------|
A|--3---3----3--2---2---------1---1-----1---0---0----------|
E|---------------------------------------------------------| (x3)
    I'll fly, I'll fly home
    I'll fly home
    And I'll fly home
   
e|-------------------------------------------|
B|--3----3------3-----3-----3-3-----3--------|
G|----2----2------2-------2-----2---2--------|
D|----------------------0--------------------|
A|--3---3----3--2---2---------1---1-1--------|
E|-------------------------------------------|


************************************

| h   Hammer-on
| p   Pull-off
| \   Slide down

************************************
Suggest correction
Creating personal tab
Creating personal tab
You can edit any tab online and save it as your Personal.

You can edit, replace or remove any tab part or add personal notes – all changes will be seen only by you.

Personal tabs can be accessed anytime from any device, even offline.
Learn more »
Give kudos to tab author, rate the tab!
1 2 3 4 5
comments
print report bad tab
guest
You may want to rate the tab now too:
select rating
Wanna post a correction for this tab? Suggest correction